  0
SECTION
  2
HEADER
  9
$ACADVER
  1
AC1012
  9
$DWGCODEPAGE
  3
dos850
  9
$INSBASE
 10
0.0
 20
0.0
 30
0.0
  9
$EXTMIN
 10
1.000000E+20
 20
1.000000E+20
 30
1.000000E+20
  9
$EXTMAX
 10
-1.000000E+20
 20
-1.000000E+20
 30
-1.000000E+20
  9
$LIMMIN
 10
0.0
 20
0.0
  9
$LIMMAX
 10
0.0
 20
0.0
  9
$ORTHOMODE
 70
     0
  9
$REGENMODE
 70
     1
  9
$FILLMODE
 70
     1
  9
$QTEXTMODE
 70
     0
  9
$MIRRTEXT
 70
     1
  9
$DRAGMODE
 70
     2
  9
$LTSCALE
 40
1.0
  9
$OSMODE
 70
     0
  9
$ATTMODE
 70
     1
  9
$TEXTSIZE
 40
0.2
  9
$TRACEWID
 40
0.05
  9
$TEXTSTYLE
  7
STANDARD
  9
$CLAYER
  8
0
  9
$CELTYPE
  6
CONTINUOUS
  9
$CECOLOR
 62
   256
  9
$CELTSCALE
 40
1.0
  9
$DELOBJ
 70
     1
  9
$DISPSILH
 70
     0
  9
$DIMSCALE
 40
1.0
  9
$DIMASZ
 40
0.18
  9
$DIMEXO
 40
0.0625
  9
$DIMDLI
 40
0.38
  9
$DIMRND
 40
0.0
  9
$DIMDLE
 40
0.0
  9
$DIMEXE
 40
0.18
  9
$DIMTP
 40
0.0
  9
$DIMTM
 40
0.0
  9
$DIMTXT
 40
0.18
  9
$DIMCEN
 40
0.09
  9
$DIMTSZ
 40
0.0
  9
$DIMTOL
 70
     0
  9
$DIMLIM
 70
     0
  9
$DIMTIH
 70
     1
  9
$DIMTOH
 70
     1
  9
$DIMSE1
 70
     0
  9
$DIMSE2
 70
     0
  9
$DIMTAD
 70
     0
  9
$DIMZIN
 70
     0
  9
$DIMBLK
  1

  9
$DIMASO
 70
     1
  9
$DIMSHO
 70
     1
  9
$DIMPOST
  1

  9
$DIMAPOST
  1

  9
$DIMALT
 70
     0
  9
$DIMALTD
 70
     2
  9
$DIMALTF
 40
25.4
  9
$DIMLFAC
 40
1.0
  9
$DIMTOFL
 70
     0
  9
$DIMTVP
 40
0.0
  9
$DIMTIX
 70
     0
  9
$DIMSOXD
 70
     0
  9
$DIMSAH
 70
     0
  9
$DIMBLK1
  1

  9
$DIMBLK2
  1

  9
$DIMSTYLE
  2
STANDARD
  9
$DIMCLRD
 70
     0
  9
$DIMCLRE
 70
     0
  9
$DIMCLRT
 70
     0
  9
$DIMTFAC
 40
1.0
  9
$DIMGAP
 40
0.09
  9
$DIMJUST
 70
     0
  9
$DIMSD1
 70
     0
  9
$DIMSD2
 70
     0
  9
$DIMTOLJ
 70
     1
  9
$DIMTZIN
 70
     0
  9
$DIMALTZ
 70
     0
  9
$DIMALTTZ
 70
     0
  9
$DIMFIT
 70
     3
  9
$DIMUPT
 70
     0
  9
$DIMUNIT
 70
     2
  9
$DIMDEC
 70
     4
  9
$DIMTDEC
 70
     4
  9
$DIMALTU
 70
     2
  9
$DIMALTTD
 70
     2
  9
$DIMTXSTY
  7
STANDARD
  9
$DIMAUNIT
 70
     0
  9
$LUNITS
 70
     2
  9
$LUPREC
 70
     4
  9
$SKETCHINC
 40
0.1
  9
$FILLETRAD
 40
0.0
  9
$AUNITS
 70
     0
  9
$AUPREC
 70
     0
  9
$MENU
  1
acad
  9
$ELEVATION
 40
0.0
  9
$PELEVATION
 40
0.0
  9
$THICKNESS
 40
0.0
  9
$LIMCHECK
 70
     0
  9
$BLIPMODE
 70
     1
  9
$CHAMFERA
 40
0.0
  9
$CHAMFERB
 40
0.0
  9
$CHAMFERC
 40
0.0
  9
$CHAMFERD
 40
0.0
  9
$SKPOLY
 70
     0
  9
$TDCREATE
 40
0.000000000
  9
$TDUPDATE
 40
0.000000000
  9
$TDINDWG
 40
0.0000000000
  9
$TDUSRTIMER
 40
0.0000000000
  9
$USRTIMER
 70
     1
  9
$ANGBASE
 50
0.0
  9
$ANGDIR
 70
     0
  9
$PDMODE
 70
     0
  9
$PDSIZE
 40
0.0
  9
$PLINEWID
 40
0.0
  9
$COORDS
 70
     0
  9
$SPLFRAME
 70
     0
  9
$SPLINETYPE
 70
     6
  9
$SPLINESEGS
 70
     8
  9
$ATTDIA
 70
     0
  9
$ATTREQ
 70
     1
  9
$HANDLING
 70
     1
  9
$HANDSEED
  5
422
  9
$SURFTAB1
 70
     6
  9
$SURFTAB2
 70
     6
  9
$SURFTYPE
 70
     6
  9
$SURFU
 70
     6
  9
$SURFV
 70
     6
  9
$UCSNAME
  2

  9
$UCSORG
 10
0.0
 20
0.0
 30
0.0
  9
$UCSXDIR
 10
1.0
 20
0.0
 30
0.0
  9
$UCSYDIR
 10
0.0
 20
1.0
 30
0.0
  9
$PUCSNAME
  2

  9
$PUCSORG
 10
0.0
 20
0.0
 30
0.0
  9
$PUCSXDIR
 10
1.0
 20
0.0
 30
0.0
  9
$PUCSYDIR
 10
0.0
 20
1.0
 30
0.0
  9
$USERI1
 70
     0
  9
$USERI2
 70
     0
  9
$USERI3
 70
     0
  9
$USERI4
 70
     0
  9
$USERI5
 70
     0
  9
$USERR1
 40
0.0
  9
$USERR2
 40
0.0
  9
$USERR3
 40
0.0
  9
$USERR4
 40
0.0
  9
$USERR5
 40
0.0
  9
$WORLDVIEW
 70
     1
  9
$SHADEDGE
 70
     3
  9
$SHADEDIF
 70
    70
  9
$TILEMODE
 70
     1
  9
$MAXACTVP
 70
    16
  9
$PINSBASE
 10
0.0
 20
0.0
 30
0.0
  9
$PLIMCHECK
 70
     0
  9
$PEXTMIN
 10
1.000000E+20
 20
1.000000E+20
 30
1.000000E+20
  9
$PEXTMAX
 10
-1.000000E+20
 20
-1.000000E+20
 30
-1.000000E+20
  9
$PLIMMIN
 10
0.0
 20
0.0
  9
$PLIMMAX
 10
12.0
 20
9.0
  9
$UNITMODE
 70
     0
  9
$VISRETAIN
 70
     0
  9
$PLINEGEN
 70
     1
  9
$PSLTSCALE
 70
     0
  9
$TREEDEPTH
 70
  3020
  9
$PICKSTYLE
 70
     1
  9
$CMLSTYLE
  2
STANDARD
  9
$CMLJUST
 70
     0
  9
$CMLSCALE
 40
1.0
  9
$SAVEIMAGES
 70
     0
  0
ENDSEC
  0
SECTION
  2
CLASSES
  0
CLASS
  1
LWPOLYLINE
  2
AcDbPolyline
  3
"AutoCAD"
 90
        0
280
     0
281
     1
  0
CLASS
  1
IMAGE
  2
AcDbRasterImage
  3
ISM
 90
      127
280
     0
281
     1
  0
CLASS
  1
OLE2FRAME
  2
AcDbOle2Frame
  3
""
 90
        0
280
     0
281
     1
  0
CLASS
  1
HATCH
  2
AcDbHatch
  3
"ACAD_SEDONA"
 90
        0
280
     0
281
     1
  0
CLASS
  1
DICTIONARYVAR
  2
AcDbDictionaryVar
  3
"AutoCAD"
 90
        0
280
     0
281
     0
  0
CLASS
  1
RASTERVARIABLES
  2
AcDbRasterVariables
  3
ISM
 90
        0
280
     0
281
     0
  0
CLASS
  1
IMAGEDEF
  2
AcDbRasterImageDef
  3
ISM
 90
        0
280
     0
281
     0
  0
CLASS
  1
IMAGEDEF_REACTOR
  2
AcDbRasterImageDefReactor
  3
ISM
 90
        1
280
     0
281
     0
  0
CLASS
  1
IDBUFFER
  2
AcDbIdBuffer
  3
"Acad"
 90
        0
280
     0
281
     0
  0
CLASS
  1
SPATIAL_FILTER
  2
AcDbSpatialFilter
  3
"Acad"
 90
        0
280
     0
281
     0
  0
CLASS
  1
XRECORD
  2
AcDbXrecord
  3
"<Built In>"
 90
        0
280
     0
281
     0
  0
CLASS
  1
SORTENTSTABLE
  2
AcDbSortentsTable
  3
"AutoCAD"
 90
        0
280
     0
281
     0
  0
CLASS
  1
LAYER_INDEX
  2
AcDbLayerIndex
  3
"Acad"
 90
        0
280
     0
281
     0
  0
CLASS
  1
SPATIAL_INDEX
  2
AcDbSpatialIndex
  3
"Acad"
 90
        0
280
     0
281
     0
  0
CLASS
  1
OBJECT_PTR
  2
CAseDLPNTableRecord
  3
"ASE-LPNTableRecord"
 90
        1
280
     0
281
     0
  0
CLASS
  1
LAYOUT
  2
AcDbLayout
  3
"AutoCAD 2000"
 90
        1
280
     0
281
     0
  0
CLASS
  1
PLOTSETTINGS
  2
AcDbPlotSettings
  3
"AutoCAD 2000"
 90
        1
280
     0
281
     0
  0
CLASS
  1
ACDBDICTIONARYWDFLT
  2
AcDbDictionaryWithDefault
  3
"AutoCAD 2000"
 90
        1
280
     0
281
     0
  0
CLASS
  1
ACDBPLACEHOLDER
  2
AcDbPlaceHolder
  3
"AutoCAD 2000"
 90
        1
280
     0
281
     0
  0
CLASS
  1
VBA_PROJECT
  2
AcDbVbaProject
  3
"acadvba"
 90
        1
280
     0
281
     0
  0
CLASS
  1
WIPEOUT
  2
AcDbWipeout
  3
WipeOut|AutoCAD Express Tool|expresstools@autodesk.com
 90
      127
280
     0
281
     1
  0
CLASS
  1
WIPEOUTVARIABLES
  2
AcDbWipeoutVariables
  3
WipeOut|AutoCAD Express Tool|expresstools@autodesk.com
 90
        0
280
     0
281
     0
  0
CLASS
  1
RTEXT
  2
RText
  3
RText|AutoCAD Express Tool|expresstools@autodesk.com
 90
        0
280
     0
281
     1
  0
CLASS
  1
ARCALIGNEDTEXT
  2
AcDbArcAlignedText
  3
ATEXT|AutoCAD Express Tool|expresstools@autodesk.com
 90
        0
280
     0
281
     1
  0
ENDSEC
  0
SECTION
  2
TABLES
  0
TABLE
  2
VPORT
  5
7
100
AcDbSymbolTable
 70
     1
  0
VPORT
  5
15
100
AcDbSymbolTableRecord
100
AcDbViewportTableRecord
  2
*ACTIVE
 70
     0
 10
0.0
 20
0.0
 11
1.0
 21
1.0
 12
6.591288
 22
4.579184
 13
0.0
 23
0.0
 14
1.0
 24
1.0
 15
0.0
 25
0.0
 16
0.0
 26
0.0
 36
1.0
 17
0.0
 27
0.0
 37
0.0
 40
9.158369
 41
0.688564
 42
50.0
 43
0.0
 44
0.0
 50
0.0
 51
0.0
 71
     0
 72
   100
 73
     1
 74
     1
 75
     0
 76
     0
 77
     0
 78
     0
  0
ENDTAB
  0
TABLE
  2
LTYPE
  5
4
100
AcDbSymbolTable
 70
     3
  0
LTYPE
  5
11
100
AcDbSymbolTableRecord
100
AcDbLinetypeTableRecord
  2
BYBLOCK
 70
    64
  3

 72
    65
 73
     0
 40
0.0
  0
LTYPE
  5
12
100
AcDbSymbolTableRecord
100
AcDbLinetypeTableRecord
  2
BYLAYER
 70
    64
  3

 72
    65
 73
     0
 40
0.0
  0
LTYPE
  5
13
100
AcDbSymbolTableRecord
100
AcDbLinetypeTableRecord
  2
CONTINUOUS
 70
    64
  3
Solid line
 72
    65
 73
     0
 40
0.0
  0
ENDTAB
  0
TABLE
  2
LAYER
  5
2
100
AcDbSymbolTable
 70
     1
  0
LAYER
  5
14
100
AcDbSymbolTableRecord
100
AcDbLayerTableRecord
  2
0
 70
     0
 62
     7
  6
CONTINUOUS
  0
ENDTAB
  0
TABLE
  2
STYLE
  5
3
100
AcDbSymbolTable
 70
     1
  0
STYLE
  5
17
100
AcDbSymbolTableRecord
100
AcDbTextStyleTableRecord
  2
STANDARD
 70
     0
 40
0.0
 41
1.0
 50
0.0
 71
     0
 42
0.0
  3
txt
  4

  0
ENDTAB
  0
TABLE
  2
VIEW
  5
5
100
AcDbSymbolTable
 70
     0
  0
ENDTAB
  0
TABLE
  2
UCS
  5
6
100
AcDbSymbolTable
 70
     0
  0
ENDTAB
  0
TABLE
  2
APPID
  5
8
100
AcDbSymbolTable
 70
     1
  0
APPID
  5
16
100
AcDbSymbolTableRecord
100
AcDbRegAppTableRecord
  2
ACAD
 70
     0
  0
ENDTAB
  0
TABLE
  2
DIMSTYLE
  5
9
100
AcDbSymbolTable
 70
     1
  0
DIMSTYLE
105
18
100
AcDbSymbolTableRecord
100
AcDbDimStyleTableRecord
  2
STANDARD
 70
     0
  3

  4

  5

  6

  7

 40
1.0
 41
0.18
 42
0.0625
 43
0.38
 44
0.18
 45
0.0
 46
0.0
 47
0.0
 48
0.0
 71
     0
 72
     0
 73
     1
 74
     1
 75
     0
 76
     0
 77
     0
 78
     0
140
0.18
141
0.09
142
0.0
143
25.4
144
1.0
145
0.0
146
1.0
147
0.09
170
     0
171
     2
172
     0
173
     0
174
     0
175
     0
176
     0
177
     0
178
     0
270
     2
271
     4
272
     4
273
     2
274
     2
275
     0
280
     0
281
     0
282
     0
283
     1
284
     0
285
     0
286
     0
287
     0
288
     0
340
17
  0
ENDTAB
  0
TABLE
  2
BLOCK_RECORD
  5
1
100
AcDbSymbolTable
 70
     0
  0
BLOCK_RECORD
  5
A
100
AcDbSymbolTableRecord
100
AcDbBlockTableRecord
  2
*MODEL_SPACE
  0
BLOCK_RECORD
  5
B
100
AcDbSymbolTableRecord
100
AcDbBlockTableRecord
  2
*PAPER_SPACE
  0
ENDTAB
  0
ENDSEC
  0
SECTION
  2
BLOCKS
  0
BLOCK
  5
D
100
AcDbEntity
  8
0
100
AcDbBlockBegin
  2
*MODEL_SPACE
 70
     0
 10
0.0
 20
0.0
 30
0.0
  3
*MODEL_SPACE
  1

  0
ENDBLK
  5
E
100
AcDbEntity
  8
0
100
AcDbBlockEnd
  0
BLOCK
  5
F
100
AcDbEntity
 67
     1
  8
0
100
AcDbBlockBegin
  2
*PAPER_SPACE
 70
     0
 10
0.0
 20
0.0
 30
0.0
  3
*PAPER_SPACE
  1

  0
ENDBLK
  5
10
100
AcDbEntity
 67
     1
  8
0
100
AcDbBlockEnd
  0
ENDSEC
  0
SECTION
  2
ENTITIES
  0
POLYLINE
  5
24
100
AcDbEntity
  8
0
 62
     0
100
AcDb2dPolyline
 66
     1
 10
0.0
 20
0.0
 30
0.0
 39
0.008713
  0
VERTEX
  5
12D
100
AcDbEntity
  8
0
 62
     0
100
AcDbVertex
100
AcDb2dVertex
 10
0.488138
 20
1.874307
 30
0.0
 40
0.008713
 41
0.008713
  0
VERTEX
  5
12E
100
AcDbEntity
  8
0
 62
     0
100
AcDbVertex
100
AcDb2dVertex
 10
0.475386
 20
1.861555
 30
0.0
 40
0.008713
 41
0.008713
  0
SEQEND
  5
12F
100
AcDbEntity
  8
0
 62
     0
  0
POLYLINE
  5
25
100
AcDbEntity
  8
0
 62
     0
100
AcDb2dPolyline
 66
     1
 10
0.0
 20
0.0
 30
0.0
 39
0.008713
  0
VERTEX
  5
130
100
AcDbEntity
  8
0
 62
     0
100
AcDbVertex
100
AcDb2dVertex
 10
0.475386
 20
1.861555
 30
0.0
 40
0.008713
 41
0.008713
  0
VERTEX
  5
131
100
AcDbEntity
  8
0
 62
     0
100
AcDbVertex
100
AcDb2dVertex
 10
0.462634
 20
1.874307
 30
0.0
 40
0.008713
 41
0.008713
  0
SEQEND
  5
132
100
AcDbEntity
  8
0
 62
     0
  0
POLYLINE
  5
26
100
AcDbEntity
  8
0
 62
     0
100
AcDb2dPolyline
 66
     1
 10
0.0
 20
0.0
 30
0.0
 39
0.008713
  0
VERTEX
  5
133
100
AcDbEntity
  8
0
 62
     0
100
AcDbVertex
100
AcDb2dVertex
 10
0.462634
 20
1.874307
 30
0.0
 40
0.008713
 41
0.008713
  0
VERTEX
  5
134
100
AcDbEntity
  8
0
 62
     0
100
AcDbVertex
100
AcDb2dVertex
 10
-0.976819
 20
1.874307
 30
0.0
 40
0.008713
 41
0.008713
  0
SEQEND
  5
135
100
AcDbEntity
  8
0
 62
     0
  0
SPLINE
  5
27
100
AcDbEntity
  8
0
 62
     0
100
AcDbSpline
210
0.0
220
0.0
230
1.0
 70
     0
 71
     3
 72
     0
 73
     0
 74
    16
 44
0.0000000001
 11
-0.9768188976377953
 21
1.8743070866141733
 31
0.0
 11
-0.9794645669291339
 21
1.8741732283464567
 31
0.0
 11
-0.9820314960629921
 21
1.8737952755905511
 31
0.0
 11
-0.984496062992126
 21
1.8731732283464566
 31
0.0
 11
-0.9868543307086615
 21
1.8723346456692913
 31
0.0
 11
-0.9890866141732283
 21
1.8712755905511811
 31
0.0
 11
-0.9911889763779528
 21
1.8700157480314961
 31
0.0
 11
-0.9931456692913386
 21
1.8685629921259843
 31
0.0
 11
-0.9949488188976378
 21
1.8669330708661418
 31
0.0
 11
-0.9965787401574803
 21
1.8651299212598424
 31
0.0
 11
-0.9980314960629921
 21
1.8631732283464566
 31
0.0
 11
-0.9992913385826772
 21
1.8610708661417323
 31
0.0
 11
-1.0003503937007874
 21
1.8588385826771654
 31
0.0
 11
-1.0011889763779527
 21
1.8564803149606299
 31
0.0
 11
-1.0018110236220472
 21
1.854015748031496
 31
0.0
 11
-1.0021889763779528
 21
1.8514488188976379
 31
0.0
  0
POLYLINE
  5
28
100
AcDbEntity
  8
0
 62
     0
100
AcDb2dPolyline
 66
     1
 10
0.0
 20
0.0
 30
0.0
 39
0.008713
  0
VERTEX
  5
136
100
AcDbEntity
  8
0
 62
     0
100
AcDbVertex
100
AcDb2dVertex
 10
-1.002189
 20
1.851449
 30
0.0
 40
0.008713
 41
0.008713
  0
VERTEX
  5
137
100
AcDbEntity
  8
0
 62
     0
100
AcDbVertex
100
AcDb2dVertex
 10
-1.002323
 20
1.848803
 30
0.0
 40
0.008713
 41
0.008713
  0
SEQEND
  5
138
100
AcDbEntity
  8
0
 62
     0
  0
POLYLINE
  5
29
100
AcDbEntity
  8
0
 62
     0
100
AcDb2dPolyline
 66
     1
 10
0.0
 20
0.0
 30
0.0
 39
0.008713
  0
VERTEX
  5
139
100
AcDbEntity
  8
0
 62
     0
100
AcDbVertex
100
AcDb2dVertex
 10
-1.002323
 20
1.848803
 30
0.0
 40
0.008713
 41
0.008713
  0
VERTEX
  5
13A
100
AcDbEntity
  8
0
 62
     0
100
AcDbVertex
100
AcDb2dVertex
 10
-1.002323
 20
1.848803
 30
0.0
 40
0.008713
 41
0.008713
  0
SEQEND
  5
13B
100
AcDbEntity
  8
0
 62
     0
  0
POLYLINE
  5
2A
100
AcDbEntity
  8
0
 62
     0
100
AcDb2dPolyline
 66
     1
 10
0.0
 20
0.0
 30
0.0
 39
0.008713
  0
VERTEX
  5
13C
100
AcDbEntity
  8
0
 62
     0
100
AcDbVertex
100
AcDb2dVertex
 10
-1.002323
 20
1.848803
 30
0.0
 40
0.008713
 41
0.008713
  0
VERTEX
  5
13D
100
AcDbEntity
  8
0
 62
     0
100
AcDbVertex
100
AcDb2dVertex
 10
-1.002323
 20
0.211685
 30
0.0
 40
0.008713
 41
0.008713
  0
SEQEND
  5
13E
100
AcDbEntity
  8
0
 62
     0
  0
SPLINE
  5
2B
100
AcDbEntity
  8
0
 62
     0
100
AcDbSpline
210
0.0
220
0.0
230
1.0
 70
     0
 71
     3
 72
     0
 73
     0
 74
    16
 44
0.0000000001
 11
-1.0023228346456692
 21
0.2116850393700787
 31
0.0
 11
-1.0021889763779528
 21
0.2090275590551181
 31
0.0
 11
-1.0018110236220472
 21
0.2064645669291339
 31
0.0
 11
-1.0011889763779527
 21
0.203996062992126
 31
0.0
 11
-1.0003503937007874
 21
0.2016417322834646
 31
0.0
 11
-0.9992913385826772
 21
0.1994015748031496
 31
0.0
 11
-0.9980314960629921
 21
0.1973031496062992
 31
0.0
 11
-0.9965787401574803
 21
0.1953425196850394
 31
0.0
 11
-0.9949488188976378
 21
0.1935472440944882
 31
0.0
 11
-0.9931456692913386
 21
0.1919094488188976
 31
0.0
 11
-0.9911889763779528
 21
0.1904606299212598
 31
0.0
 11
-0.9890866141732283
 21
0.1891968503937008
 31
0.0
 11
-0.9868543307086615
 21
0.1881417322834646
 31
0.0
 11
-0.984496062992126
 21
0.1872952755905512
 31
0.0
 11
-0.9820314960629921
 21
0.1866811023622047
 31
0.0
 11
-0.9794645669291339
 21
0.1863031496062992
 31
0.0
  0
POLYLINE
  5
2C
100
AcDbEntity
  8
0
 62
     0
100
AcDb2dPolyline
 66
     1
 10
0.0
 20
0.0
 30
0.0
 39
0.008713
  0
VERTEX
  5
13F
100
AcDbEntity
  8
0
 62
     0
100
AcDbVertex
100
AcDb2dVertex
 10
-0.979465
 20
0.186303
 30
0.0
 40
0.008713
 41
0.008713
  0
VERTEX
  5
140
100
AcDbEntity
  8
0
 62
     0
100
AcDbVertex
100
AcDb2dVertex
 10
-0.976819
 20
0.186177
 30
0.0
 40
0.008713
 41
0.008713
  0
SEQEND
  5
141
100
AcDbEntity
  8
0
 62
     0
  0
POLYLINE
  5
2D
100
AcDbEntity
  8
0
 62
     0
100
AcDb2dPolyline
 66
     1
 10
0.0
 20
0.0
 30
0.0
 39
0.008713
  0
VERTEX
  5
142
100
AcDbEntity
  8
0
 62
     0
100
AcDbVertex
100
AcDb2dVertex
 10
-0.976819
 20
0.186177
 30
0.0
 40
0.008713
 41
0.008713
  0
VERTEX
  5
143
100
AcDbEntity
  8
0
 62
     0
100
AcDbVertex
100
AcDb2dVertex
 10
-0.976819
 20
0.186177
 30
0.0
 40
0.008713
 41
0.008713
  0
SEQEND
  5
144
100
AcDbEntity
  8
0
 62
     0
  0
POLYLINE
  5
2E
100
AcDbEntity
  8
0
 62
     0
100
AcDb2dPolyline
 66
     1
 10
0.0
 20
0.0
 30
0.0
 39
0.008713
  0
VERTEX
  5
145
100
AcDbEntity
  8
0
 62
     0
100
AcDbVertex
100
AcDb2dVertex
 10
-0.976819
 20
0.186177
 30
0.0
 40
0.008713
 41
0.008713
  0
VERTEX
  5
146
100
AcDbEntity
  8
0
 62
     0
100
AcDbVertex
100
AcDb2dVertex
 10
-0.718579
 20
0.186177
 30
0.0
 40
0.008713
 41
0.008713
  0
SEQEND
  5
147
100
AcDbEntity
  8
0
 62
     0
  0
SPLINE
  5
2F
100
AcDbEntity
  8
0
 62
     0
100
AcDbSpline
210
0.0
220
0.0
230
1.0
 70
     0
 71
     3
 72
     0
 73
     0
 74
    16
 44
0.0000000001
 11
-0.7185787401574804
 21
0.1861771653543307
 31
0.0
 11
-0.7153070866141732
 21
0.1863385826771654
 31
0.0
 11
-0.7121023622047245
 21
0.1868267716535433
 31
0.0
 11
-0.7089724409448819
 21
0.1876181102362205
 31
0.0
 11
-0.7059488188976378
 21
0.1887125984251969
 31
0.0
 11
-0.7030354330708661
 21
0.1900787401574803
 31
0.0
 11
-0.7002755905511811
 21
0.1917204724409449
 31
0.0
 11
-0.6976732283464567
 21
0.1936062992125984
 31
0.0
 11
-0.695263779527559
 21
0.195740157480315
 31
0.0
 11
-0.6930472440944882
 21
0.1980866141732283
 31
0.0
 11
-0.6910629921259842
 21
0.2006496062992126
 31
0.0
 11
-0.6893267716535433
 21
0.2034055118110236
 31
0.0
 11
-0.6878661417322834
 21
0.2063503937007874
 31
0.0
 11
-0.6866850393700787
 21
0.2094527559055118
 31
0.0
 11
-0.6858188976377952
 21
0.2127165354330709
 31
0.0
 11
-0.6852795275590551
 21
0.2161181102362205
 31
0.0
  0
POLYLINE
  5
30
100
AcDbEntity
  8
0
 62
     0
100
AcDb2dPolyline
 66
     1
 10
0.0
 20
0.0
 30
0.0
 39
0.008713
  0
VERTEX
  5
148
100
AcDbEntity
  8
0
 62
     0
100
AcDbVertex
100
AcDb2dVertex
 10
-0.68528
 20
0.216118
 30
0.0
 40
0.008713
 41
0.008713
  0
VERTEX
  5
149
100
AcDbEntity
  8
0
 62
     0
100
AcDbVertex
100
AcDb2dVertex
 10
-0.685102
 20
0.219654
 30
0.0
 40
0.008713
 41
0.008713
  0
SEQEND
  5
14A
100
AcDbEntity
  8
0
 62
     0
  0
POLYLINE
  5
31
100
AcDbEntity
  8
0
 62
     0
100
AcDb2dPolyline
 66
     1
 10
0.0
 20
0.0
 30
0.0
 39
0.008713
  0
VERTEX
  5
14B
100
AcDbEntity
  8
0
 62
     0
100
AcDbVertex
100
AcDb2dVertex
 10
-0.685102
 20
0.219654
 30
0.0
 40
0.008713
 41
0.008713
  0
VERTEX
  5
14C
100
AcDbEntity
  8
0
 62
     0
100
AcDbVertex
100
AcDb2dVertex
 10
-0.685102
 20
0.219654
 30
0.0
 40
0.008713
 41
0.008713
  0
SEQEND
  5
14D
100
AcDbEntity
  8
0
 62
     0
  0
POLYLINE
  5
32
100
AcDbEntity
  8
0
 62
     0
100
AcDb2dPolyline
 66
     1
 10
0.0
 20
0.0
 30
0.0
 39
0.008713
  0
VERTEX
  5
14E
100
AcDbEntity
  8
0
 62
     0
100
AcDbVertex
100
AcDb2dVertex
 10
-0.685102
 20
0.219654
 30
0.0
 40
0.008713
 41
0.008713
  0
VERTEX
  5
14F
100
AcDbEntity
  8
0
 62
     0
100
AcDbVertex
100
AcDb2dVertex
 10
-0.685102
 20
0.219654
 30
0.0
 40
0.008713
 41
0.008713
  0
SEQEND
  5
150
100
AcDbEntity
  8
0
 62
     0
  0
SPLINE
  5
33
100
AcDbEntity
  8
0
 62
     0
100
AcDbSpline
210
0.0
220
0.0
230
1.0
 70
     0
 71
     3
 72
     0
 73
     0
 74
    16
 44
0.0000000001
 11
-0.6851023622047244
 21
0.2196535433070866
 31
0.0
 11
-0.6852795275590551
 21
0.2231771653543307
 31
0.0
 11
-0.6858188976377952
 21
0.2265787401574803
 31
0.0
 11
-0.6866850393700787
 21
0.2298385826771654
 31
0.0
 11
-0.6878661417322834
 21
0.2329527559055118
 31
0.0
 11
-0.6893267716535433
 21
0.2358897637795276
 31
0.0
 11
-0.6910629921259842
 21
0.2386456692913386
 31
0.0
 11
-0.6930472440944882
 21
0.2412047244094488
 31
0.0
 11
-0.695263779527559
 21
0.2435629921259843
 31
0.0
 11
-0.6976732283464567
 21
0.2456850393700787
 31
0.0
 11
-0.7002755905511811
 21
0.2475748031496063
 31
0.0
 11
-0.7030354330708661
 21
0.2492086614173228
 31
0.0
 11
-0.7059488188976378
 21
0.2505866141732284
 31
0.0
 11
-0.7089724409448819
 21
0.2516732283464567
 31
0.0
 11
-0.7121023622047245
 21
0.2524724409448819
 31
0.0
 11
-0.7153070866141732
 21
0.2529606299212598
 31
0.0
  0
POLYLINE
  5
34
100
AcDbEntity
  8
0
 62
     0
100
AcDb2dPolyline
 66
     1
 10
0.0
 20
0.0
 30
0.0
 39
0.008713
  0
VERTEX
  5
151
100
AcDbEntity
  8
0
 62
     0
100
AcDbVertex
100
AcDb2dVertex
 10
-0.715307
 20
0.252961
 30
0.0
 40
0.008713
 41
0.008713
  0
VERTEX
  5
152
100
AcDbEntity
  8
0
 62
     0
100
AcDbVertex
100
AcDb2dVertex
 10
-0.718579
 20
0.25313
 30
0.0
 40
0.008713
 41
0.008713
  0
SEQEND
  5
153
100
AcDbEntity
  8
0
 62
     0
  0
POLYLINE
  5
35
100
AcDbEntity
  8
0
 62
     0
100
AcDb2dPolyline
 66
     1
 10
0.0
 20
0.0
 30
0.0
 39
0.008713
  0
VERTEX
  5
154
100
AcDbEntity
  8
0
 62
     0
100
AcDbVertex
100
AcDb2dVertex
 10
-0.718579
 20
0.25313
 30
0.0
 40
0.008713
 41
0.008713
  0
VERTEX
  5
155
100
AcDbEntity
  8
0
 62
     0
100
AcDbVertex
100
AcDb2dVertex
 10
-0.718579
 20
0.25313
 30
0.0
 40
0.008713
 41
0.008713
  0
SEQEND
  5
156
100
AcDbEntity
  8
0
 62
     0
  0
POLYLINE
  5
36
100
AcDbEntity
  8
0
 62
     0
100
AcDb2dPolyline
 66
     1
 10
0.0
 20
0.0
 30
0.0
 39
0.008713
  0
VERTEX
  5
157
100
AcDbEntity
  8
0
 62
     0
100
AcDbVertex
100
AcDb2dVertex
 10
-0.718579
 20
0.25313
 30
0.0
 40
0.008713
 41
0.008713
  0
VERTEX
  5
158
100
AcDbEntity
  8
0
 62
     0
100
AcDbVertex
100
AcDb2dVertex
 10
-0.799874
 20
0.25313
 30
0.0
 40
0.008713
 41
0.008713
  0
SEQEND
  5
159
100
AcDbEntity
  8
0
 62
     0
  0
SPLINE
  5
37
100
AcDbEntity
  8
0
 62
     0
100
AcDbSpline
210
0.0
220
0.0
230
1.0
 70
     0
 71
     3
 72
     0
 73
     0
 74
    16
 44
0.0000000001
 11
-0.7998740157480315
 21
0.2531299212598425
 31
0.0
 11
-0.8002204724409449
 21
0.2599173228346457
 31
0.0
 11
-0.801244094488189
 21
0.2665275590551181
 31
0.0
 11
-0.8029015748031496
 21
0.2729133858267717
 31
0.0
 11
-0.8051732283464567
 21
0.2790511811023622
 31
0.0
 11
-0.808007874015748
 21
0.2848937007874016
 31
0.0
 11
-0.8113818897637796
 21
0.2904173228346457
 31
0.0
 11
-0.815255905511811
 21
0.2955787401574803
 31
0.0
 11
-0.8195984251968504
 21
0.3003503937007874
 31
0.0
 11
-0.8243582677165354
 21
0.3046850393700787
 31
0.0
 11
-0.8295196850393701
 21
0.3085590551181102
 31
0.0
 11
-0.8350433070866142
 21
0.3119330708661418
 31
0.0
 11
-0.8408937007874016
 21
0.3147755905511811
 31
0.0
 11
-0.8470236220472441
 21
0.3170393700787402
 31
0.0
 11
-0.8534173228346457
 21
0.3187047244094488
 31
0.0
 11
-0.8600275590551181
 21
0.3197283464566929
 31
0.0
  0
POLYLINE
  5
38
100
AcDbEntity
  8
0
 62
     0
100
AcDb2dPolyline
 66
     1
 10
0.0
 20
0.0
 30
0.0
 39
0.008713
  0
VERTEX
  5
15A
100
AcDbEntity
  8
0
 62
     0
100
AcDbVertex
100
AcDb2dVertex
 10
-0.860028
 20
0.319728
 30
0.0
 40
0.008713
 41
0.008713
  0
VERTEX
  5
15B
100
AcDbEntity
  8
0
 62
     0
100
AcDbVertex
100
AcDb2dVertex
 10
-0.866827
 20
0.320083
 30
0.0
 40
0.008713
 41
0.008713
  0
SEQEND
  5
15C
100
AcDbEntity
  8
0
 62
     0
  0
POLYLINE
  5
39
100
AcDbEntity
  8
0
 62
     0
100
AcDb2dPolyline
 66
     1
 10
0.0
 20
0.0
 30
0.0
 39
0.008713
  0
VERTEX
  5
15D
100
AcDbEntity
  8
0
 62
     0
100
AcDbVertex
100
AcDb2dVertex
 10
-0.866827
 20
0.320083
 30
0.0
 40
0.008713
 41
0.008713
  0
VERTEX
  5
15E
100
AcDbEntity
  8
0
 62
     0
100
AcDbVertex
100
AcDb2dVertex
 10
-0.866827
 20
0.320083
 30
0.0
 40
0.008713
 41
0.008713
  0
SEQEND
  5
15F
100
AcDbEntity
  8
0
 62
     0
  0
POLYLINE
  5
3A
100
AcDbEntity
  8
0
 62
     0
100
AcDb2dPolyline
 66
     1
 10
0.0
 20
0.0
 30
0.0
 39
0.008713
  0
VERTEX
  5
160
100
AcDbEntity
  8
0
 62
     0
100
AcDbVertex
100
AcDb2dVertex
 10
-0.866827
 20
0.320083
 30
0.0
 40
0.008713
 41
0.008713
  0
VERTEX
  5
161
100
AcDbEntity
  8
0
 62
     0
100
AcDbVertex
100
AcDb2dVertex
 10
-0.866827
 20
0.25313
 30
0.0
 40
0.008713
 41
0.008713
  0
SEQEND
  5
162
100
AcDbEntity
  8
0
 62
     0
  0
POLYLINE
  5
3B
100
AcDbEntity
  8
0
 62
     0
100
AcDb2dPolyline
 66
     1
 10
0.0
 20
0.0
 30
0.0
 39
0.008713
  0
VERTEX
  5
163
100
AcDbEntity
  8
0
 62
     0
100
AcDbVertex
100
AcDb2dVertex
 10
-0.866827
 20
0.25313
 30
0.0
 40
0.008713
 41
0.008713
  0
VERTEX
  5
164
100
AcDbEntity
  8
0
 62
     0
100
AcDbVertex
100
AcDb2dVertex
 10
-0.935374
 20
0.25313
 30
0.0
 40
0.008713
 41
0.008713
  0
SEQEND
  5
165
100
AcDbEntity
  8
0
 62
     0
  0
POLYLINE
  5
3C
100
AcDbEntity
  8
0
 62
     0
100
AcDb2dPolyline
 66
     1
 10
0.0
 20
0.0
 30
0.0
 39
0.008713
  0
VERTEX
  5
166
100
AcDbEntity
  8
0
 62
     0
100
AcDbVertex
100
AcDb2dVertex
 10
-0.935374
 20
0.25313
 30
0.0
 40
0.008713
 41
0.008713
  0
VERTEX
  5
167
100
AcDbEntity
  8
0
 62
     0
100
AcDbVertex
100
AcDb2dVertex
 10
-0.935374
 20
1.807358
 30
0.0
 40
0.008713
 41
0.008713
  0
SEQEND
  5
168
100
AcDbEntity
  8
0
 62
     0
  0
POLYLINE
  5
3D
100
AcDbEntity
  8
0
 62
     0
100
AcDb2dPolyline
 66
     1
 10
0.0
 20
0.0
 30
0.0
 39
0.008713
  0
VERTEX
  5
169
100
AcDbEntity
  8
0
 62
     0
100
AcDbVertex
100
AcDb2dVertex
 10
-0.935374
 20
1.807358
 30
0.0
 40
0.008713
 41
0.008713
  0
VERTEX
  5
16A
100
AcDbEntity
  8
0
 62
     0
100
AcDbVertex
100
AcDb2dVertex
 10
-0.866827
 20
1.807358
 30
0.0
 40
0.008713
 41
0.008713
  0
SEQEND
  5
16B
100
AcDbEntity
  8
0
 62
     0
  0
POLYLINE
  5
3E
100
AcDbEntity
  8
0
 62
     0
100
AcDb2dPolyline
 66
     1
 10
0.0
 20
0.0
 30
0.0
 39
0.008713
  0
VERTEX
  5
16C
100
AcDbEntity
  8
0
 62
     0
100
AcDbVertex
100
AcDb2dVertex
 10
-0.866827
 20
1.807358
 30
0.0
 40
0.008713
 41
0.008713
  0
VERTEX
  5
16D
100
AcDbEntity
  8
0
 62
     0
100
AcDbVertex
100
AcDb2dVertex
 10
-0.866827
 20
1.732433
 30
0.0
 40
0.008713
 41
0.008713
  0
SEQEND
  5
16E
100
AcDbEntity
  8
0
 62
     0
  0
SPLINE
  5
3F
100
AcDbEntity
  8
0
 62
     0
100
AcDbSpline
210
0.0
220
0.0
230
1.0
 70
     0
 71
     3
 72
     0
 73
     0
 74
    16
 44
0.0000000001
 11
-0.8668267716535433
 21
1.7324330708661417
 31
0.0
 11
-0.8667677165354331
 21
1.7306535433070867
 31
0.0
 11
-0.8666023622047244
 21
1.7289173228346457
 31
0.0
 11
-0.8663267716535433
 21
1.7272204724409448
 31
0.0
 11
-0.8659527559055118
 21
1.7255787401574803
 31
0.0
 11
-0.8654645669291339
 21
1.7239724409448818
 31
0.0
 11
-0.8648858267716536
 21
1.7224251968503936
 31
0.0
 11
-0.8642047244094488
 21
1.7209251968503938
 31
0.0
 11
-0.8634370078740158
 21
1.7194803149606299
 31
0.0
 11
-0.8625629921259843
 21
1.7180826771653543
 31
0.0
 11
-0.8616062992125985
 21
1.716751968503937
 31
0.0
 11
-0.8605551181102362
 21
1.715476377952756
 31
0.0
 11
-0.8594251968503937
 21
1.7142716535433071
 31
0.0
 11
-0.8582047244094488
 21
1.7131259842519686
 31
0.0
 11
-0.8569055118110236
 21
1.7120511811023622
 31
0.0
 11
-0.8555275590551181
 21
1.7110472440944882
 31
0.0
  0
POLYLINE
  5
40
100
AcDbEntity
  8
0
 62
     0
100
AcDb2dPolyline
 66
     1
 10
0.0
 20
0.0
 30
0.0
 39
0.008713
  0
VERTEX
  5
16F
100
AcDbEntity
  8
0
 62
     0
100
AcDbVertex
100
AcDb2dVertex
 10
-0.855528
 20
1.711047
 30
0.0
 40
0.008713
 41
0.008713
  0
VERTEX
  5
170
100
AcDbEntity
  8
0
 62
     0
100
AcDbVertex
100
AcDb2dVertex
 10
-0.854075
 20
1.710118
 30
0.0
 40
0.008713
 41
0.008713
  0
SEQEND
  5
171
100
AcDbEntity
  8
0
 62
     0
  0
POLYLINE
  5
41
100
AcDbEntity
  8
0
 62
     0
100
AcDb2dPolyline
 66
     1
 10
0.0
 20
0.0
 30
0.0
 39
0.008713
  0
VERTEX
  5
172
100
AcDbEntity
  8
0
 62
     0
100
AcDbVertex
100
AcDb2dVertex
 10
-0.854075
 20
1.710118
 30
0.0
 40
0.008713
 41
0.008713
  0
VERTEX
  5
173
100
AcDbEntity
  8
0
 62
     0
100
AcDbVertex
100
AcDb2dVertex
 10
-0.854075
 20
1.710118
 30
0.0
 40
0.008713
 41
0.008713
  0
SEQEND
  5
174
100
AcDbEntity
  8
0
 62
     0
  0
POLYLINE
  5
42
100
AcDbEntity
  8
0
 62
     0
100
AcDb2dPolyline
 66
     1
 10
0.0
 20
0.0
 30
0.0
 39
0.008713
  0
VERTEX
  5
175
100
AcDbEntity
  8
0
 62
     0
100
AcDbVertex
100
AcDb2dVertex
 10
-0.854075
 20
1.710118
 30
0.0
 40
0.008713
 41
0.008713
  0
VERTEX
  5
176
100
AcDbEntity
  8
0
 62
     0
100
AcDbVertex
100
AcDb2dVertex
 10
-0.766402
 20
1.659106
 30
0.0
 40
0.008713
 41
0.008713
  0
SEQEND
  5
177
100
AcDbEntity
  8
0
 62
     0
  0
SPLINE
  5
43
100
AcDbEntity
  8
0
 62
     0
100
AcDbSpline
210
0.0
220
0.0
230
1.0
 70
     0
 71
     3
 72
     0
 73
     0
 74
    16
 44
0.0000000001
 11
-0.7664015748031496
 21
1.6591062992125984
 31
0.0
 11
-0.7649370078740158
 21
1.6581653543307087
 31
0.0
 11
-0.7635590551181103
 21
1.6571614173228346
 31
0.0
 11
-0.762255905511811
 21
1.6560866141732284
 31
0.0
 11
-0.7610393700787401
 21
1.6549448818897639
 31
0.0
 11
-0.7599015748031496
 21
1.6537322834645669
 31
0.0
 11
-0.7588582677165354
 21
1.6524606299212599
 31
0.0
 11
-0.7578937007874016
 21
1.6511259842519685
 31
0.0
 11
-0.7570314960629921
 21
1.649740157480315
 31
0.0
 11
-0.7562519685039371
 21
1.6482874015748032
 31
0.0
 11
-0.7555708661417323
 21
1.6467874015748032
 31
0.0
 11
-0.7549921259842519
 21
1.6452283464566928
 31
0.0
 11
-0.7545118110236221
 21
1.6436338582677166
 31
0.0
 11
-0.7541299212598426
 21
1.6419842519685039
 31
0.0
 11
-0.7538622047244095
 21
1.6402952755905511
 31
0.0
 11
-0.7536968503937008
 21
1.6385590551181102
 31
0.0
  0
POLYLINE
  5
44
100
AcDbEntity
  8
0
 62
     0
100
AcDb2dPolyline
 66
     1
 10
0.0
 20
0.0
 30
0.0
 39
0.008713
  0
VERTEX
  5
178
100
AcDbEntity
  8
0
 62
     0
100
AcDbVertex
100
AcDb2dVertex
 10
-0.753697
 20
1.638559
 30
0.0
 40
0.008713
 41
0.008713
  0
VERTEX
  5
179
100
AcDbEntity
  8
0
 62
     0
100
AcDbVertex
100
AcDb2dVertex
 10
-0.753646
 20
1.636791
 30
0.0
 40
0.008713
 41
0.008713
  0
SEQEND
  5
17A
100
AcDbEntity
  8
0
 62
     0
  0
POLYLINE
  5
45
100
AcDbEntity
  8
0
 62
     0
100
AcDb2dPolyline
 66
     1
 10
0.0
 20
0.0
 30
0.0
 39
0.008713
  0
VERTEX
  5
17B
100
AcDbEntity
  8
0
 62
     0
100
AcDbVertex
100
AcDb2dVertex
 10
-0.753646
 20
1.636791
 30
0.0
 40
0.008713
 41
0.008713
  0
VERTEX
  5
17C
100
AcDbEntity
  8
0
 62
     0
100
AcDbVertex
100
AcDb2dVertex
 10
-0.753646
 20
1.636791
 30
0.0
 40
0.008713
 41
0.008713
  0
SEQEND
  5
17D
100
AcDbEntity
  8
0
 62
     0
  0
POLYLINE
  5
46
100
AcDbEntity
  8
0
 62
     0
100
AcDb2dPolyline
 66
     1
 10
0.0
 20
0.0
 30
0.0
 39
0.008713
  0
VERTEX
  5
17E
100
AcDbEntity
  8
0
 62
     0
100
AcDbVertex
100
AcDb2dVertex
 10
-0.753646
 20
1.636791
 30
0.0
 40
0.008713
 41
0.008713
  0
VERTEX
  5
17F
100
AcDbEntity
  8
0
 62
     0
100
AcDbVertex
100
AcDb2dVertex
 10
-0.753646
 20
1.520421
 30
0.0
 40
0.008713
 41
0.008713
  0
SEQEND
  5
180
100
AcDbEntity
  8
0
 62
     0
  0
SPLINE
  5
47
100
AcDbEntity
  8
0
 62
     0
100
AcDbSpline
210
0.0
220
0.0
230
1.0
 70
     0
 71
     3
 72
     0
 73
     0
 74
    16
 44
0.0000000001
 11
-0.7536456692913386
 21
1.5204212598425197
 31
0.0
 11
-0.7532913385826772
 21
1.5133385826771653
 31
0.0
 11
-0.7522637795275591
 21
1.506484251968504
 31
0.0
 11
-0.7505905511811024
 21
1.4998818897637796
 31
0.0
 11
-0.7483110236220473
 21
1.4935669291338582
 31
0.0
 11
-0.7454448818897638
 21
1.4875629921259843
 31
0.0
 11
-0.7420354330708662
 21
1.4819133858267717
 31
0.0
 11
-0.7381141732283465
 21
1.4766456692913386
 31
0.0
 11
-0.7337165354330709
 21
1.4717992125984252
 31
0.0
 11
-0.7288582677165354
 21
1.4673897637795275
 31
0.0
 11
-0.7235944881889764
 21
1.4634685039370079
 31
0.0
 11
-0.7179409448818898
 21
1.4600590551181103
 31
0.0
 11
-0.7119448818897638
 21
1.4572047244094488
 31
0.0
 11
-0.7056259842519685
 21
1.4549173228346457
 31
0.0
 11
-0.6990275590551182
 21
1.4532519685039369
 31
0.0
 11
-0.6921732283464567
 21
1.4522244094488188
 31
0.0
  0
POLYLINE
  5
48
100
AcDbEntity
  8
0
 62
     0
100
AcDb2dPolyline
 66
     1
 10
0.0
 20
0.0
 30
0.0
 39
0.008713
  0
VERTEX
  5
181
100
AcDbEntity
  8
0
 62
     0
100
AcDbVertex
100
AcDb2dVertex
 10
-0.692173
 20
1.452224
 30
0.0
 40
0.008713
 41
0.008713
  0
VERTEX
  5
182
100
AcDbEntity
  8
0
 62
     0
100
AcDbVertex
100
AcDb2dVertex
 10
-0.685102
 20
1.451878
 30
0.0
 40
0.008713
 41
0.008713
  0
SEQEND
  5
183
100
AcDbEntity
  8
0
 62
     0
  0
POLYLINE
  5
49
100
AcDbEntity
  8
0
 62
     0
100
AcDb2dPolyline
 66
     1
 10
0.0
 20
0.0
 30
0.0
 39
0.008713
  0
VERTEX
  5
184
100
AcDbEntity
  8
0
 62
     0
100
AcDbVertex
100
AcDb2dVertex
 10
-0.685102
 20
1.451878
 30
0.0
 40
0.008713
 41
0.008713
  0
VERTEX
  5
185
100
AcDbEntity
  8
0
 62
     0
100
AcDbVertex
100
AcDb2dVertex
 10
-0.685102
 20
1.451878
 30
0.0
 40
0.008713
 41
0.008713
  0
SEQEND
  5
186
100
AcDbEntity
  8
0
 62
     0
  0
POLYLINE
  5
4A
100
AcDbEntity
  8
0
 62
     0
100
AcDb2dPolyline
 66
     1
 10
0.0
 20
0.0
 30
0.0
 39
0.008713
  0
VERTEX
  5
187
100
AcDbEntity
  8
0
 62
     0
100
AcDbVertex
100
AcDb2dVertex
 10
-0.685102
 20
1.451878
 30
0.0
 40
0.008713
 41
0.008713
  0
VERTEX
  5
188
100
AcDbEntity
  8
0
 62
     0
100
AcDbVertex
100
AcDb2dVertex
 10
-0.685102
 20
1.675047
 30
0.0
 40
0.008713
 41
0.008713
  0
SEQEND
  5
189
100
AcDbEntity
  8
0
 62
     0
  0
SPLINE
  5
4B
100
AcDbEntity
  8
0
 62
     0
100
AcDbSpline
210
0.0
220
0.0
230
1.0
 70
     0
 71
     3
 72
     0
 73
     0
 74
    16
 44
0.0000000001
 11
-0.6851023622047244
 21
1.6750472440944881
 31
0.0
 11
-0.6851535433070867
 21
1.6768307086614174
 31
0.0
 11
-0.6853188976377953
 21
1.6786181102362205
 31
0.0
 11
-0.6855944881889764
 21
1.6803897637795275
 31
0.0
 11
-0.685992125984252
 21
1.6821417322834646
 31
0.0
 11
-0.686492125984252
 21
1.6838582677165355
 31
0.0
 11
-0.6871141732283465
 21
1.6855472440944881
 31
0.0
 11
-0.6878385826771654
 21
1.6871929133858268
 31
0.0
 11
-0.6886850393700787
 21
1.6887952755905511
 31
0.0
 11
-0.6896338582677165
 21
1.6903307086614172
 31
0.0
 11
-0.6906968503937008
 21
1.6918070866141732
 31
0.0
 11
-0.6918700787401575
 21
1.6932125984251969
 31
0.0
 11
-0.6931653543307087
 21
1.6945472440944882
 31
0.0
 11
-0.6945629921259843
 21
1.6957913385826771
 31
0.0
 11
-0.6960826771653543
 21
1.6969488188976378
 31
0.0
 11
-0.6977047244094489
 21
1.6980039370078741
 31
0.0
  0
POLYLINE
  5
4C
100
AcDbEntity
  8
0
 62
     0
100
AcDb2dPolyline
 66
     1
 10
0.0
 20
0.0
 30
0.0
 39
0.008713
  0
VERTEX
  5
18A
100
AcDbEntity
  8
0
 62
     0
100
AcDbVertex
100
AcDb2dVertex
 10
-0.697705
 20
1.698004
 30
0.0
 40
0.008713
 41
0.008713
  0
VERTEX
  5
18B
100
AcDbEntity
  8
0
 62
     0
100
AcDbVertex
100
AcDb2dVertex
 10
-0.699449
 20
1.698961
 30
0.0
 40
0.008713
 41
0.008713
  0
SEQEND
  5
18C
100
AcDbEntity
  8
0
 62
     0
  0
POLYLINE
  5
4D
100
AcDbEntity
  8
0
 62
     0
100
AcDb2dPolyline
 66
     1
 10
0.0
 20
0.0
 30
0.0
 39
0.008713
  0
VERTEX
  5
18D
100
AcDbEntity
  8
0
 62
     0
100
AcDbVertex
100
AcDb2dVertex
 10
-0.699449
 20
1.698961
 30
0.0
 40
0.008713
 41
0.008713
  0
VERTEX
  5
18E
100
AcDbEntity
  8
0
 62
     0
100
AcDbVertex
100
AcDb2dVertex
 10
-0.699449
 20
1.698961
 30
0.0
 40
0.008713
 41
0.008713
  0
SEQEND
  5
18F
100
AcDbEntity
  8
0
 62
     0
  0
POLYLINE
  5
4E
100
AcDbEntity
  8
0
 62
     0
100
AcDb2dPolyline
 66
     1
 10
0.0
 20
0.0
 30
0.0
 39
0.008713
  0
VERTEX
  5
190
100
AcDbEntity
  8
0
 62
     0
100
AcDbVertex
100
AcDb2dVertex
 10
-0.699449
 20
1.698961
 30
0.0
 40
0.008713
 41
0.008713
  0
VERTEX
  5
191
100
AcDbEntity
  8
0
 62
     0
100
AcDbVertex
100
AcDb2dVertex
 10
-0.799874
 20
1.756346
 30
0.0
 40
0.008713
 41
0.008713
  0
SEQEND
  5
192
100
AcDbEntity
  8
0
 62
     0
  0
POLYLINE
  5
4F
100
AcDbEntity
  8
0
 62
     0
100
AcDb2dPolyline
 66
     1
 10
0.0
 20
0.0
 30
0.0
 39
0.008713
  0
VERTEX
  5
193
100
AcDbEntity
  8
0
 62
     0
100
AcDbVertex
100
AcDb2dVertex
 10
-0.799874
 20
1.756346
 30
0.0
 40
0.008713
 41
0.008713
  0
VERTEX
  5
194
100
AcDbEntity
  8
0
 62
     0
100
AcDbVertex
100
AcDb2dVertex
 10
-0.799874
 20
1.807358
 30
0.0
 40
0.008713
 41
0.008713
  0
SEQEND
  5
195
100
AcDbEntity
  8
0
 62
     0
  0
POLYLINE
  5
50
100
AcDbEntity
  8
0
 62
     0
100
AcDb2dPolyline
 66
     1
 10
0.0
 20
0.0
 30
0.0
 39
0.008713
  0
VERTEX
  5
196
100
AcDbEntity
  8
0
 62
     0
100
AcDbVertex
100
AcDb2dVertex
 10
-0.799874
 20
1.807358
 30
0.0
 40
0.008713
 41
0.008713
  0
VERTEX
  5
197
100
AcDbEntity
  8
0
 62
     0
100
AcDbVertex
100
AcDb2dVertex
 10
-0.253106
 20
1.807358
 30
0.0
 40
0.008713
 41
0.008713
  0
SEQEND
  5
198
100
AcDbEntity
  8
0
 62
     0
  0
POLYLINE
  5
51
100
AcDbEntity
  8
0
 62
     0
100
AcDb2dPolyline
 66
     1
 10
0.0
 20
0.0
 30
0.0
 39
0.008713
  0
VERTEX
  5
199
100
AcDbEntity
  8
0
 62
     0
100
AcDbVertex
100
AcDb2dVertex
 10
-0.253106
 20
1.807358
 30
0.0
 40
0.008713
 41
0.008713
  0
VERTEX
  5
19A
100
AcDbEntity
  8
0
 62
     0
100
AcDbVertex
100
AcDb2dVertex
 10
-0.253106
 20
1.730843
 30
0.0
 40
0.008713
 41
0.008713
  0
SEQEND
  5
19B
100
AcDbEntity
  8
0
 62
     0
  0
POLYLINE
  5
52
100
AcDbEntity
  8
0
 62
     0
100
AcDb2dPolyline
 66
     1
 10
0.0
 20
0.0
 30
0.0
 39
0.008713
  0
VERTEX
  5
19C
100
AcDbEntity
  8
0
 62
     0
100
AcDbVertex
100
AcDb2dVertex
 10
-0.253106
 20
1.730843
 30
0.0
 40
0.008713
 41
0.008713
  0
VERTEX
  5
19D
100
AcDbEntity
  8
0
 62
     0
100
AcDbVertex
100
AcDb2dVertex
 10
-0.186157
 20
1.730843
 30
0.0
 40
0.008713
 41
0.008713
  0
SEQEND
  5
19E
100
AcDbEntity
  8
0
 62
     0
  0
POLYLINE
  5
53
100
AcDbEntity
  8
0
 62
     0
100
AcDb2dPolyline
 66
     1
 10
0.0
 20
0.0
 30
0.0
 39
0.008713
  0
VERTEX
  5
19F
100
AcDbEntity
  8
0
 62
     0
100
AcDbVertex
100
AcDb2dVertex
 10
-0.186157
 20
1.730843
 30
0.0
 40
0.008713
 41
0.008713
  0
VERTEX
  5
1A0
100
AcDbEntity
  8
0
 62
     0
100
AcDbVertex
100
AcDb2dVertex
 10
-0.186157
 20
1.807358
 30
0.0
 40
0.008713
 41
0.008713
  0
SEQEND
  5
1A1
100
AcDbEntity
  8
0
 62
     0
  0
POLYLINE
  5
54
100
AcDbEntity
  8
0
 62
     0
100
AcDb2dPolyline
 66
     1
 10
0.0
 20
0.0
 30
0.0
 39
0.008713
  0
VERTEX
  5
1A2
100
AcDbEntity
  8
0
 62
     0
100
AcDbVertex
100
AcDb2dVertex
 10
-0.186157
 20
1.807358
 30
0.0
 40
0.008713
 41
0.008713
  0
VERTEX
  5
1A3
100
AcDbEntity
  8
0
 62
     0
100
AcDbVertex
100
AcDb2dVertex
 10
-0.013996
 20
1.807358
 30
0.0
 40
0.008713
 41
0.008713
  0
SEQEND
  5
1A4
100
AcDbEntity
  8
0
 62
     0
  0
POLYLINE
  5
55
100
AcDbEntity
  8
0
 62
     0
100
AcDb2dPolyline
 66
     1
 10
0.0
 20
0.0
 30
0.0
 39
0.008713
  0
VERTEX
  5
1A5
100
AcDbEntity
  8
0
 62
     0
100
AcDbVertex
100
AcDb2dVertex
 10
-0.013996
 20
1.807358
 30
0.0
 40
0.008713
 41
0.008713
  0
VERTEX
  5
1A6
100
AcDbEntity
  8
0
 62
     0
100
AcDbVertex
100
AcDb2dVertex
 10
-0.013996
 20
0.780772
 30
0.0
 40
0.008713
 41
0.008713
  0
SEQEND
  5
1A7
100
AcDbEntity
  8
0
 62
     0
  0
POLYLINE
  5
56
100
AcDbEntity
  8
0
 62
     0
100
AcDb2dPolyline
 66
     1
 10
0.0
 20
0.0
 30
0.0
 39
0.008713
  0
VERTEX
  5
1A8
100
AcDbEntity
  8
0
 62
     0
100
AcDbVertex
100
AcDb2dVertex
 10
-0.013996
 20
0.780772
 30
0.0
 40
0.008713
 41
0.008713
  0
VERTEX
  5
1A9
100
AcDbEntity
  8
0
 62
     0
100
AcDbVertex
100
AcDb2dVertex
 10
-0.186157
 20
0.780772
 30
0.0
 40
0.008713
 41
0.008713
  0
SEQEND
  5
1AA
100
AcDbEntity
  8
0
 62
     0
  0
POLYLINE
  5
57
100
AcDbEntity
  8
0
 62
     0
100
AcDb2dPolyline
 66
     1
 10
0.0
 20
0.0
 30
0.0
 39
0.008713
  0
VERTEX
  5
1AB
100
AcDbEntity
  8
0
 62
     0
100
AcDbVertex
100
AcDb2dVertex
 10
-0.186157
 20
0.780772
 30
0.0
 40
0.008713
 41
0.008713
  0
VERTEX
  5
1AC
100
AcDbEntity
  8
0
 62
     0
100
AcDbVertex
100
AcDb2dVertex
 10
-0.186157
 20
0.857287
 30
0.0
 40
0.008713
 41
0.008713
  0
SEQEND
  5
1AD
100
AcDbEntity
  8
0
 62
     0
  0
POLYLINE
  5
58
100
AcDbEntity
  8
0
 62
     0
100
AcDb2dPolyline
 66
     1
 10
0.0
 20
0.0
 30
0.0
 39
0.008713
  0
VERTEX
  5
1AE
100
AcDbEntity
  8
0
 62
     0
100
AcDbVertex
100
AcDb2dVertex
 10
-0.186157
 20
0.857287
 30
0.0
 40
0.008713
 41
0.008713
  0
VERTEX
  5
1AF
100
AcDbEntity
  8
0
 62
     0
100
AcDbVertex
100
AcDb2dVertex
 10
-0.253106
 20
0.857287
 30
0.0
 40
0.008713
 41
0.008713
  0
SEQEND
  5
1B0
100
AcDbEntity
  8
0
 62
     0
  0
POLYLINE
  5
59
100
AcDbEntity
  8
0
 62
     0
100
AcDb2dPolyline
 66
     1
 10
0.0
 20
0.0
 30
0.0
 39
0.008713
  0
VERTEX
  5
1B1
100
AcDbEntity
  8
0
 62
     0
100
AcDbVertex
100
AcDb2dVertex
 10
-0.253106
 20
0.857287
 30
0.0
 40
0.008713
 41
0.008713
  0
VERTEX
  5
1B2
100
AcDbEntity
  8
0
 62
     0
100
AcDbVertex
100
AcDb2dVertex
 10
-0.253106
 20
0.780772
 30
0.0
 40
0.008713
 41
0.008713
  0
SEQEND
  5
1B3
100
AcDbEntity
  8
0
 62
     0
  0
POLYLINE
  5
5A
100
AcDbEntity
  8
0
 62
     0
100
AcDb2dPolyline
 66
     1
 10
0.0
 20
0.0
 30
0.0
 39
0.008713
  0
VERTEX
  5
1B4
100
AcDbEntity
  8
0
 62
     0
100
AcDbVertex
100
AcDb2dVertex
 10
-0.253106
 20
0.780772
 30
0.0
 40
0.008713
 41
0.008713
  0
VERTEX
  5
1B5
100
AcDbEntity
  8
0
 62
     0
100
AcDbVertex
100
AcDb2dVertex
 10
-0.449177
 20
0.780772
 30
0.0
 40
0.008713
 41
0.008713
  0
SEQEND
  5
1B6
100
AcDbEntity
  8
0
 62
     0
  0
POLYLINE
  5
5B
100
AcDbEntity
  8
0
 62
     0
100
AcDb2dPolyline
 66
     1
 10
0.0
 20
0.0
 30
0.0
 39
0.008713
  0
VERTEX
  5
1B7
100
AcDbEntity
  8
0
 62
     0
100
AcDbVertex
100
AcDb2dVertex
 10
-0.449177
 20
0.780772
 30
0.0
 40
0.008713
 41
0.008713
  0
VERTEX
  5
1B8
100
AcDbEntity
  8
0
 62
     0
100
AcDbVertex
100
AcDb2dVertex
 10
-0.449177
 20
0.713819
 30
0.0
 40
0.008713
 41
0.008713
  0
SEQEND
  5
1B9
100
AcDbEntity
  8
0
 62
     0
  0
POLYLINE
  5
5C
100
AcDbEntity
  8
0
 62
     0
100
AcDb2dPolyline
 66
     1
 10
0.0
 20
0.0
 30
0.0
 39
0.008713
  0
VERTEX
  5
1BA
100
AcDbEntity
  8
0
 62
     0
100
AcDbVertex
100
AcDb2dVertex
 10
-0.449177
 20
0.713819
 30
0.0
 40
0.008713
 41
0.008713
  0
VERTEX
  5
1BB
100
AcDbEntity
  8
0
 62
     0
100
AcDbVertex
100
AcDb2dVertex
 10
-0.07935
 20
0.713819
 30
0.0
 40
0.008713
 41
0.008713
  0
SEQEND
  5
1BC
100
AcDbEntity
  8
0
 62
     0
  0
POLYLINE
  5
5D
100
AcDbEntity
  8
0
 62
     0
100
AcDb2dPolyline
 66
     1
 10
0.0
 20
0.0
 30
0.0
 39
0.008713
  0
VERTEX
  5
1BD
100
AcDbEntity
  8
0
 62
     0
100
AcDbVertex
100
AcDb2dVertex
 10
-0.07935
 20
0.713819
 30
0.0
 40
0.008713
 41
0.008713
  0
VERTEX
  5
1BE
100
AcDbEntity
  8
0
 62
     0
100
AcDbVertex
100
AcDb2dVertex
 10
-0.066598
 20
0.726571
 30
0.0
 40
0.008713
 41
0.008713
  0
SEQEND
  5
1BF
100
AcDbEntity
  8
0
 62
     0
  0
POLYLINE
  5
5E
100
AcDbEntity
  8
0
 62
     0
100
AcDb2dPolyline
 66
     1
 10
0.0
 20
0.0
 30
0.0
 39
0.008713
  0
VERTEX
  5
1C0
100
AcDbEntity
  8
0
 62
     0
100
AcDbVertex
100
AcDb2dVertex
 10
-0.066598
 20
0.726571
 30
0.0
 40
0.008713
 41
0.008713
  0
VERTEX
  5
1C1
100
AcDbEntity
  8
0
 62
     0
100
AcDbVertex
100
AcDb2dVertex
 10
-0.053846
 20
0.713819
 30
0.0
 40
0.008713
 41
0.008713
  0
SEQEND
  5
1C2
100
AcDbEntity
  8
0
 62
     0
  0
POLYLINE
  5
5F
100
AcDbEntity
  8
0
 62
     0
100
AcDb2dPolyline
 66
     1
 10
0.0
 20
0.0
 30
0.0
 39
0.008713
  0
VERTEX
  5
1C3
100
AcDbEntity
  8
0
 62
     0
100
AcDbVertex
100
AcDb2dVertex
 10
-0.053846
 20
0.713819
 30
0.0
 40
0.008713
 41
0.008713
  0
VERTEX
  5
1C4
100
AcDbEntity
  8
0
 62
     0
100
AcDbVertex
100
AcDb2dVertex
 10
0.052957
 20
0.713819
 30
0.0
 40
0.008713
 41
0.008713
  0
SEQEND
  5
1C5
100
AcDbEntity
  8
0
 62
     0
  0
POLYLINE
  5
60
100
AcDbEntity
  8
0
 62
     0
100
AcDb2dPolyline
 66
     1
 10
0.0
 20
0.0
 30
0.0
 39
0.008713
  0
VERTEX
  5
1C6
100
AcDbEntity
  8
0
 62
     0
100
AcDbVertex
100
AcDb2dVertex
 10
0.052957
 20
0.713819
 30
0.0
 40
0.008713
 41
0.008713
  0
VERTEX
  5
1C7
100
AcDbEntity
  8
0
 62
     0
100
AcDbVertex
100
AcDb2dVertex
 10
0.052957
 20
1.207984
 30
0.0
 40
0.008713
 41
0.008713
  0
SEQEND
  5
1C8
100
AcDbEntity
  8
0
 62
     0
  0
POLYLINE
  5
61
100
AcDbEntity
  8
0
 62
     0
100
AcDb2dPolyline
 66
     1
 10
0.0
 20
0.0
 30
0.0
 39
0.008713
  0
VERTEX
  5
1C9
100
AcDbEntity
  8
0
 62
     0
100
AcDbVertex
100
AcDb2dVertex
 10
0.052957
 20
1.207984
 30
0.0
 40
0.008713
 41
0.008713
  0
VERTEX
  5
1CA
100
AcDbEntity
  8
0
 62
     0
100
AcDbVertex
100
AcDb2dVertex
 10
0.040205
 20
1.220736
 30
0.0
 40
0.008713
 41
0.008713
  0
SEQEND
  5
1CB
100
AcDbEntity
  8
0
 62
     0
  0
POLYLINE
  5
62
100
AcDbEntity
  8
0
 62
     0
100
AcDb2dPolyline
 66
     1
 10
0.0
 20
0.0
 30
0.0
 39
0.008713
  0
VERTEX
  5
1CC
100
AcDbEntity
  8
0
 62
     0
100
AcDbVertex
100
AcDb2dVertex
 10
0.040205
 20
1.220736
 30
0.0
 40
0.008713
 41
0.008713
  0
VERTEX
  5
1CD
100
AcDbEntity
  8
0
 62
     0
100
AcDbVertex
100
AcDb2dVertex
 10
0.052957
 20
1.233488
 30
0.0
 40
0.008713
 41
0.008713
  0
SEQEND
  5
1CE
100
AcDbEntity
  8
0
 62
     0
  0
POLYLINE
  5
63
100
AcDbEntity
  8
0
 62
     0
100
AcDb2dPolyline
 66
     1
 10
0.0
 20
0.0
 30
0.0
 39
0.008713
  0
VERTEX
  5
1CF
100
AcDbEntity
  8
0
 62
     0
100
AcDbVertex
100
AcDb2dVertex
 10
0.052957
 20
1.233488
 30
0.0
 40
0.008713
 41
0.008713
  0
VERTEX
  5
1D0
100
AcDbEntity
  8
0
 62
     0
100
AcDbVertex
100
AcDb2dVertex
 10
0.052957
 20
1.748374
 30
0.0
 40
0.008713
 41
0.008713
  0
SEQEND
  5
1D1
100
AcDbEntity
  8
0
 62
     0
  0
POLYLINE
  5
64
100
AcDbEntity
  8
0
 62
     0
100
AcDb2dPolyline
 66
     1
 10
0.0
 20
0.0
 30
0.0
 39
0.008713
  0
VERTEX
  5
1D2
100
AcDbEntity
  8
0
 62
     0
100
AcDbVertex
100
AcDb2dVertex
 10
0.052957
 20
1.748374
 30
0.0
 40
0.008713
 41
0.008713
  0
VERTEX
  5
1D3
100
AcDbEntity
  8
0
 62
     0
100
AcDbVertex
100
AcDb2dVertex
 10
0.191642
 20
1.748374
 30
0.0
 40
0.008713
 41
0.008713
  0
SEQEND
  5
1D4
100
AcDbEntity
  8
0
 62
     0
  0
SPLINE
  5
65
100
AcDbEntity
  8
0
 62
     0
100
AcDbSpline
210
0.0
220
0.0
230
1.0
 70
     0
 71
     3
 72
     0
 73
     0
 74
    32
 44
0.0000000001
 11
0.1916417322834646
 21
1.7483740157480314
 31
0.0
 11
0.1916771653543307
 21
1.7492440944881891
 31
0.0
 11
0.1917834645669291
 21
1.7500826771653544
 31
0.0
 11
0.1919606299212598
 21
1.7508779527559055
 31
0.0
 11
0.1922125984251969
 21
1.7516338582677164
 31
0.0
 11
0.1925196850393701
 21
1.7523307086614173
 31
0.0
 11
0.1928976377952756
 21
1.752992125984252
 31
0.0
 11
0.1933307086614173
 21
1.7535944881889765
 31
0.0
 11
0.1938307086614173
 21
1.7541496062992126
 31
0.0
 11
0.1943779527559055
 21
1.7546377952755905
 31
0.0
 11
0.1949803149606299
 21
1.7550748031496064
 31
0.0
 11
0.1956377952755906
 21
1.7554488188976378
 31
0.0
 11
0.1963464566929134
 21
1.7557677165354331
 31
0.0
 11
0.1970905511811024
 21
1.756015748031496
 31
0.0
 11
0.1978897637795276
 21
1.7561968503937009
 31
0.0
 11
0.1987283464566929
 21
1.7563031496062993
 31
0.0
 11
0.1996102362204724
 21
1.7563464566929134
 31
0.0
 11
0.2004803149606299
 21
1.7563031496062993
 31
0.0
 11
0.2013188976377953
 21
1.7561968503937009
 31
0.0
 11
0.2021141732283465
 21
1.756015748031496
 31
0.0
 11
0.2028700787401575
 21
1.7557677165354331
 31
0.0
 11
0.2035669291338583
 21
1.7554488188976378
 31
0.0
 11
0.2042283464566929
 21
1.7550748031496064
 31
0.0
 11
0.2048307086614173
 21
1.7546377952755905
 31
0.0
 11
0.2053858267716535
 21
1.7541496062992126
 31
0.0
 11
0.2058740157480315
 21
1.7535944881889765
 31
0.0
 11
0.2063110236220473
 21
1.752992125984252
 31
0.0
 11
0.2066850393700787
 21
1.7523307086614173
 31
0.0
 11
0.207003937007874
 21
1.7516338582677164
 31
0.0
 11
0.207251968503937
 21
1.7508779527559055
 31
0.0
 11
0.2074330708661417
 21
1.7500826771653544
 31
0.0
 11
0.2075393700787402
 21
1.7492440944881891
 31
0.0
  0
POLYLINE
  5
66
100
AcDbEntity
  8
0
 62
     0
100
AcDb2dPolyline
 66
     1
 10
0.0
 20
0.0
 30
0.0
 39
0.008713
  0
VERTEX
  5
1D5
100
AcDbEntity
  8
0
 62
     0
100
AcDbVertex
100
AcDb2dVertex
 10
0.207539
 20
1.749244
 30
0.0
 40
0.008713
 41
0.008713
  0
VERTEX
  5
1D6
100
AcDbEntity
  8
0
 62
     0
100
AcDbVertex
100
AcDb2dVertex
 10
0.207583
 20
1.748374
 30
0.0
 40
0.008713
 41
0.008713
  0
SEQEND
  5
1D7
100
AcDbEntity
  8
0
 62
     0
  0
POLYLINE
  5
67
100
AcDbEntity
  8
0
 62
     0
100
AcDb2dPolyline
 66
     1
 10
0.0
 20
0.0
 30
0.0
 39
0.008713
  0
VERTEX
  5
1D8
100
AcDbEntity
  8
0
 62
     0
100
AcDbVertex
100
AcDb2dVertex
 10
0.207583
 20
1.748374
 30
0.0
 40
0.008713
 41
0.008713
  0
VERTEX
  5
1D9
100
AcDbEntity
  8
0
 62
     0
100
AcDbVertex
100
AcDb2dVertex
 10
0.207583
 20
1.748374
 30
0.0
 40
0.008713
 41
0.008713
  0
SEQEND
  5
1DA
100
AcDbEntity
  8
0
 62
     0
  0
POLYLINE
  5
68
100
AcDbEntity
  8
0
 62
     0
100
AcDb2dPolyline
 66
     1
 10
0.0
 20
0.0
 30
0.0
 39
0.008713
  0
VERTEX
  5
1DB
100
AcDbEntity
  8
0
 62
     0
100
AcDbVertex
100
AcDb2dVertex
 10
0.207583
 20
1.748374
 30
0.0
 40
0.008713
 41
0.008713
  0
VERTEX
  5
1DC
100
AcDbEntity
  8
0
 62
     0
100
AcDbVertex
100
AcDb2dVertex
 10
0.834055
 20
1.748374
 30
0.0
 40
0.008713
 41
0.008713
  0
SEQEND
  5
1DD
100
AcDbEntity
  8
0
 62
     0
  0
SPLINE
  5
69
100
AcDbEntity
  8
0
 62
     0
100
AcDbSpline
210
0.0
220
0.0
230
1.0
 70
     0
 71
     3
 72
     0
 73
     0
 74
    16
 44
0.0000000001
 11
0.8340551181102363
 21
1.7483740157480314
 31
0.0
 11
0.8405433070866142
 21
1.7487007874015748
 31
0.0
 11
0.8468582677165354
 21
1.7496692913385827
 31
0.0
 11
0.8529566929133858
 21
1.751236220472441
 31
0.0
 11
0.8588110236220472
 21
1.7533779527559055
 31
0.0
 11
0.8643779527559056
 21
1.7560433070866142
 31
0.0
 11
0.8696377952755906
 21
1.7592125984251969
 31
0.0
 11
0.8745472440944881
 21
1.7628425196850395
 31
0.0
 11
0.8790866141732283
 21
1.7669055118110237
 31
0.0
 11
0.8832047244094489
 21
1.7713503937007875
 31
0.0
 11
0.8868858267716535
 21
1.7761574803149607
 31
0.0
 11
0.8900866141732283
 21
1.7812834645669291
 31
0.0
 11
0.8927834645669291
 21
1.7867047244094487
 31
0.0
 11
0.8949330708661417
 21
1.7923661417322834
 31
0.0
 11
0.896515748031496
 21
1.798255905511811
 31
0.0
 11
0.8974842519685039
 21
1.8043228346456692
 31
0.0
  0
POLYLINE
  5
6A
100
AcDbEntity
  8
0
 62
     0
100
AcDb2dPolyline
 66
     1
 10
0.0
 20
0.0
 30
0.0
 39
0.008713
  0
VERTEX
  5
1DE
100
AcDbEntity
  8
0
 62
     0
100
AcDbVertex
100
AcDb2dVertex
 10
0.897484
 20
1.804323
 30
0.0
 40
0.008713
 41
0.008713
  0
VERTEX
  5
1DF
100
AcDbEntity
  8
0
 62
     0
100
AcDbVertex
100
AcDb2dVertex
 10
0.897819
 20
1.810543
 30
0.0
 40
0.008713
 41
0.008713
  0
SEQEND
  5
1E0
100
AcDbEntity
  8
0
 62
     0
  0
POLYLINE
  5
6B
100
AcDbEntity
  8
0
 62
     0
100
AcDb2dPolyline
 66
     1
 10
0.0
 20
0.0
 30
0.0
 39
0.008713
  0
VERTEX
  5
1E1
100
AcDbEntity
  8
0
 62
     0
100
AcDbVertex
100
AcDb2dVertex
 10
0.897819
 20
1.810543
 30
0.0
 40
0.008713
 41
0.008713
  0
VERTEX
  5
1E2
100
AcDbEntity
  8
0
 62
     0
100
AcDbVertex
100
AcDb2dVertex
 10
0.897819
 20
1.810543
 30
0.0
 40
0.008713
 41
0.008713
  0
SEQEND
  5
1E3
100
AcDbEntity
  8
0
 62
     0
  0
POLYLINE
  5
6C
100
AcDbEntity
  8
0
 62
     0
100
AcDb2dPolyline
 66
     1
 10
0.0
 20
0.0
 30
0.0
 39
0.008713
  0
VERTEX
  5
1E4
100
AcDbEntity
  8
0
 62
     0
100
AcDbVertex
100
AcDb2dVertex
 10
0.897819
 20
1.810543
 30
0.0
 40
0.008713
 41
0.008713
  0
VERTEX
  5
1E5
100
AcDbEntity
  8
0
 62
     0
100
AcDbVertex
100
AcDb2dVertex
 10
0.897819
 20
1.812138
 30
0.0
 40
0.008713
 41
0.008713
  0
SEQEND
  5
1E6
100
AcDbEntity
  8
0
 62
     0
  0
SPLINE
  5
6D
100
AcDbEntity
  8
0
 62
     0
100
AcDbSpline
210
0.0
220
0.0
230
1.0
 70
     0
 71
     3
 72
     0
 73
     0
 74
    16
 44
0.0000000001
 11
0.8978188976377953
 21
1.8121377952755906
 31
0.0
 11
0.8974842519685039
 21
1.8186102362204724
 31
0.0
 11
0.896515748031496
 21
1.8248740157480314
 31
0.0
 11
0.8949330708661417
 21
1.8308897637795276
 31
0.0
 11
0.8927834645669291
 21
1.8366417322834645
 31
0.0
 11
0.8900866141732283
 21
1.8420905511811023
 31
0.0
 11
0.8868858267716535
 21
1.8472125984251968
 31
0.0
 11
0.8832047244094489
 21
1.85198031496063
 31
0.0
 11
0.8790866141732283
 21
1.8563700787401576
 31
0.0
 11
0.8745472440944881
 21
1.8603385826771655
 31
0.0
 11
0.8696377952755906
 21
1.8638779527559055
 31
0.0
 11
0.8643779527559056
 21
1.8669448818897638
 31
0.0
 11
0.8588110236220472
 21
1.86951968503937
 31
0.0
 11
0.8529566929133858
 21
1.8715669291338584
 31
0.0
 11
0.8468582677165354
 21
1.8730708661417323
 31
0.0
 11
0.8405433070866142
 21
1.873992125984252
 31
0.0
  0
POLYLINE
  5
6E
100
AcDbEntity
  8
0
 62
     0
100
AcDb2dPolyline
 66
     1
 10
0.0
 20
0.0
 30
0.0
 39
0.008713
  0
VERTEX
  5
1E7
100
AcDbEntity
  8
0
 62
     0
100
AcDbVertex
100
AcDb2dVertex
 10
0.840543
 20
1.873992
 30
0.0
 40
0.008713
 41
0.008713
  0
VERTEX
  5
1E8
100
AcDbEntity
  8
0
 62
     0
100
AcDbVertex
100
AcDb2dVertex
 10
0.834055
 20
1.874307
 30
0.0
 40
0.008713
 41
0.008713
  0
SEQEND
  5
1E9
100
AcDbEntity
  8
0
 62
     0
  0
POLYLINE
  5
6F
100
AcDbEntity
  8
0
 62
     0
100
AcDb2dPolyline
 66
     1
 10
0.0
 20
0.0
 30
0.0
 39
0.008713
  0
VERTEX
  5
1EA
100
AcDbEntity
  8
0
 62
     0
100
AcDbVertex
100
AcDb2dVertex
 10
0.834055
 20
1.874307
 30
0.0
 40
0.008713
 41
0.008713
  0
VERTEX
  5
1EB
100
AcDbEntity
  8
0
 62
     0
100
AcDbVertex
100
AcDb2dVertex
 10
0.834055
 20
1.874307
 30
0.0
 40
0.008713
 41
0.008713
  0
SEQEND
  5
1EC
100
AcDbEntity
  8
0
 62
     0
  0
POLYLINE
  5
70
100
AcDbEntity
  8
0
 62
     0
100
AcDb2dPolyline
 66
     1
 10
0.0
 20
0.0
 30
0.0
 39
0.008713
  0
VERTEX
  5
1ED
100
AcDbEntity
  8
0
 62
     0
100
AcDbVertex
100
AcDb2dVertex
 10
0.834055
 20
1.874307
 30
0.0
 40
0.008713
 41
0.008713
  0
VERTEX
  5
1EE
100
AcDbEntity
  8
0
 62
     0
100
AcDbVertex
100
AcDb2dVertex
 10
0.488138
 20
1.874307
 30
0.0
 40
0.008713
 41
0.008713
  0
SEQEND
  5
1EF
100
AcDbEntity
  8
0
 62
     0
  0
POLYLINE
  5
71
100
AcDbEntity
  8
0
 62
     0
100
AcDb2dPolyline
 66
     1
 10
0.0
 20
0.0
 30
0.0
 39
0.008713
  0
VERTEX
  5
1F0
100
AcDbEntity
  8
0
 62
     0
100
AcDbVertex
100
AcDb2dVertex
 10
-1.005512
 20
1.899815
 30
0.0
 40
0.008713
 41
0.008713
  0
VERTEX
  5
1F1
100
AcDbEntity
  8
0
 62
     0
100
AcDbVertex
100
AcDb2dVertex
 10
-1.005512
 20
2.596425
 30
0.0
 40
0.008713
 41
0.008713
  0
SEQEND
  5
1F2
100
AcDbEntity
  8
0
 62
     0
  0
POLYLINE
  5
72
100
AcDbEntity
  8
0
 62
     0
100
AcDb2dPolyline
 66
     1
 10
0.0
 20
0.0
 30
0.0
 39
0.008713
  0
VERTEX
  5
1F3
100
AcDbEntity
  8
0
 62
     0
100
AcDbVertex
100
AcDb2dVertex
 10
0.896224
 20
1.86315
 30
0.0
 40
0.008713
 41
0.008713
  0
VERTEX
  5
1F4
100
AcDbEntity
  8
0
 62
     0
100
AcDbVertex
100
AcDb2dVertex
 10
0.896224
 20
2.596425
 30
0.0
 40
0.008713
 41
0.008713
  0
SEQEND
  5
1F5
100
AcDbEntity
  8
0
 62
     0
  0
POLYLINE
  5
73
100
AcDbEntity
  8
0
 62
     0
100
AcDb2dPolyline
 66
     1
 10
0.0
 20
0.0
 30
0.0
 39
0.008713
  0
VERTEX
  5
1F6
100
AcDbEntity
  8
0
 62
     0
100
AcDbVertex
100
AcDb2dVertex
 10
-0.85248
 20
2.441799
 30
0.0
 40
0.008713
 41
0.008713
  0
VERTEX
  5
1F7
100
AcDbEntity
  8
0
 62
     0
100
AcDbVertex
100
AcDb2dVertex
 10
-0.358315
 20
2.441799
 30
0.0
 40
0.008713
 41
0.008713
  0
SEQEND
  5
1F8
100
AcDbEntity
  8
0
 62
     0
  0
POLYLINE
  5
74
100
AcDbEntity
  8
0
 62
     0
100
AcDb2dPolyline
 66
     1
 10
0.0
 20
0.0
 30
0.0
 39
0.008713
  0
VERTEX
  5
1F9
100
AcDbEntity
  8
0
 62
     0
100
AcDbVertex
100
AcDb2dVertex
 10
0.741598
 20
2.441799
 30
0.0
 40
0.008713
 41
0.008713
  0
VERTEX
  5
1FA
100
AcDbEntity
  8
0
 62
     0
100
AcDbVertex
100
AcDb2dVertex
 10
0.247433
 20
2.441799
 30
0.0
 40
0.008713
 41
0.008713
  0
SEQEND
  5
1FB
100
AcDbEntity
  8
0
 62
     0
  0
POLYLINE
  5
75
100
AcDbEntity
  8
0
 62
     0
100
AcDb2dPolyline
 66
     1
 10
0.0
 20
0.0
 30
0.0
 39
0.008713
  0
VERTEX
  5
1FC
100
AcDbEntity
  8
0
 62
     0
100
AcDbVertex
100
AcDb2dVertex
 10
-0.85248
 20
2.468898
 30
0.0
 40
0.008713
 41
0.008713
  0
VERTEX
  5
1FD
100
AcDbEntity
  8
0
 62
     0
100
AcDbVertex
100
AcDb2dVertex
 10
-0.85248
 20
2.421075
 30
0.0
 40
0.008713
 41
0.008713
  0
SEQEND
  5
1FE
100
AcDbEntity
  8
0
 62
     0
  0
POLYLINE
  5
76
100
AcDbEntity
  8
0
 62
     0
100
AcDb2dPolyline
 66
     1
 10
0.0
 20
0.0
 30
0.0
 39
0.008713
  0
VERTEX
  5
1FF
100
AcDbEntity
  8
0
 62
     0
100
AcDbVertex
100
AcDb2dVertex
 10
-0.85248
 20
2.421075
 30
0.0
 40
0.008713
 41
0.008713
  0
VERTEX
  5
200
100
AcDbEntity
  8
0
 62
     0
100
AcDbVertex
100
AcDb2dVertex
 10
-1.005512
 20
2.441799
 30
0.0
 40
0.008713
 41
0.008713
  0
SEQEND
  5
201
100
AcDbEntity
  8
0
 62
     0
  0
POLYLINE
  5
77
100
AcDbEntity
  8
0
 62
     0
100
AcDb2dPolyline
 66
     1
 10
0.0
 20
0.0
 30
0.0
 39
0.008713
  0
VERTEX
  5
202
100
AcDbEntity
  8
0
 62
     0
100
AcDbVertex
100
AcDb2dVertex
 10
-1.005512
 20
2.441799
 30
0.0
 40
0.008713
 41
0.008713
  0
VERTEX
  5
203
100
AcDbEntity
  8
0
 62
     0
100
AcDbVertex
100
AcDb2dVertex
 10
-0.85248
 20
2.468898
 30
0.0
 40
0.008713
 41
0.008713
  0
SEQEND
  5
204
100
AcDbEntity
  8
0
 62
     0
  0
POLYLINE
  5
78
100
AcDbEntity
  8
0
 62
     0
100
AcDb2dPolyline
 66
     1
 10
0.0
 20
0.0
 30
0.0
 39
0.008713
  0
VERTEX
  5
205
100
AcDbEntity
  8
0
 62
     0
100
AcDbVertex
100
AcDb2dVertex
 10
0.741598
 20
2.468898
 30
0.0
 40
0.008713
 41
0.008713
  0
VERTEX
  5
206
100
AcDbEntity
  8
0
 62
     0
100
AcDbVertex
100
AcDb2dVertex
 10
0.741598
 20
2.421075
 30
0.0
 40
0.008713
 41
0.008713
  0
SEQEND
  5
207
100
AcDbEntity
  8
0
 62
     0
  0
POLYLINE
  5
79
100
AcDbEntity
  8
0
 62
     0
100
AcDb2dPolyline
 66
     1
 10
0.0
 20
0.0
 30
0.0
 39
0.008713
  0
VERTEX
  5
208
100
AcDbEntity
  8
0
 62
     0
100
AcDbVertex
100
AcDb2dVertex
 10
0.741598
 20
2.421075
 30
0.0
 40
0.008713
 41
0.008713
  0
VERTEX
  5
209
100
AcDbEntity
  8
0
 62
     0
100
AcDbVertex
100
AcDb2dVertex
 10
0.896224
 20
2.441799
 30
0.0
 40
0.008713
 41
0.008713
  0
SEQEND
  5
20A
100
AcDbEntity
  8
0
 62
     0
  0
POLYLINE
  5
7A
100
AcDbEntity
  8
0
 62
     0
100
AcDb2dPolyline
 66
     1
 10
0.0
 20
0.0
 30
0.0
 39
0.008713
  0
VERTEX
  5
20B
100
AcDbEntity
  8
0
 62
     0
100
AcDbVertex
100
AcDb2dVertex
 10
0.896224
 20
2.441799
 30
0.0
 40
0.008713
 41
0.008713
  0
VERTEX
  5
20C
100
AcDbEntity
  8
0
 62
     0
100
AcDbVertex
100
AcDb2dVertex
 10
0.741598
 20
2.468898
 30
0.0
 40
0.008713
 41
0.008713
  0
SEQEND
  5
20D
100
AcDbEntity
  8
0
 62
     0
  0
POLYLINE
  5
7B
100
AcDbEntity
  8
0
 62
     0
100
AcDb2dPolyline
 66
     1
 10
0.0
 20
0.0
 30
0.0
 39
0.008713
  0
VERTEX
  5
20E
100
AcDbEntity
  8
0
 62
     0
100
AcDbVertex
100
AcDb2dVertex
 10
-0.283394
 20
2.494406
 30
0.0
 40
0.008713
 41
0.008713
  0
VERTEX
  5
20F
100
AcDbEntity
  8
0
 62
     0
100
AcDbVertex
100
AcDb2dVertex
 10
-0.256295
 20
2.521504
 30
0.0
 40
0.008713
 41
0.008713
  0
SEQEND
  5
210
100
AcDbEntity
  8
0
 62
     0
  0
POLYLINE
  5
7C
100
AcDbEntity
  8
0
 62
     0
100
AcDb2dPolyline
 66
     1
 10
0.0
 20
0.0
 30
0.0
 39
0.008713
  0
VERTEX
  5
211
100
AcDbEntity
  8
0
 62
     0
100
AcDbVertex
100
AcDb2dVertex
 10
-0.256295
 20
2.521504
 30
0.0
 40
0.008713
 41
0.008713
  0
VERTEX
  5
212
100
AcDbEntity
  8
0
 62
     0
100
AcDbVertex
100
AcDb2dVertex
 10
-0.208472
 20
2.521504
 30
0.0
 40
0.008713
 41
0.008713
  0
SEQEND
  5
213
100
AcDbEntity
  8
0
 62
     0
  0
POLYLINE
  5
7D
100
AcDbEntity
  8
0
 62
     0
100
AcDb2dPolyline
 66
     1
 10
0.0
 20
0.0
 30
0.0
 39
0.008713
  0
VERTEX
  5
214
100
AcDbEntity
  8
0
 62
     0
100
AcDbVertex
100
AcDb2dVertex
 10
-0.208472
 20
2.521504
 30
0.0
 40
0.008713
 41
0.008713
  0
VERTEX
  5
215
100
AcDbEntity
  8
0
 62
     0
100
AcDbVertex
100
AcDb2dVertex
 10
-0.182969
 20
2.494406
 30
0.0
 40
0.008713
 41
0.008713
  0
SEQEND
  5
216
100
AcDbEntity
  8
0
 62
     0
  0
POLYLINE
  5
7E
100
AcDbEntity
  8
0
 62
     0
100
AcDb2dPolyline
 66
     1
 10
0.0
 20
0.0
 30
0.0
 39
0.008713
  0
VERTEX
  5
217
100
AcDbEntity
  8
0
 62
     0
100
AcDbVertex
100
AcDb2dVertex
 10
-0.182969
 20
2.494406
 30
0.0
 40
0.008713
 41
0.008713
  0
VERTEX
  5
218
100
AcDbEntity
  8
0
 62
     0
100
AcDbVertex
100
AcDb2dVertex
 10
-0.182969
 20
2.468898
 30
0.0
 40
0.008713
 41
0.008713
  0
SEQEND
  5
219
100
AcDbEntity
  8
0
 62
     0
  0
POLYLINE
  5
7F
100
AcDbEntity
  8
0
 62
     0
100
AcDb2dPolyline
 66
     1
 10
0.0
 20
0.0
 30
0.0
 39
0.008713
  0
VERTEX
  5
21A
100
AcDbEntity
  8
0
 62
     0
100
AcDbVertex
100
AcDb2dVertex
 10
-0.182969
 20
2.468898
 30
0.0
 40
0.008713
 41
0.008713
  0
VERTEX
  5
21B
100
AcDbEntity
  8
0
 62
     0
100
AcDbVertex
100
AcDb2dVertex
 10
-0.208472
 20
2.441799
 30
0.0
 40
0.008713
 41
0.008713
  0
SEQEND
  5
21C
100
AcDbEntity
  8
0
 62
     0
  0
POLYLINE
  5
80
100
AcDbEntity
  8
0
 62
     0
100
AcDb2dPolyline
 66
     1
 10
0.0
 20
0.0
 30
0.0
 39
0.008713
  0
VERTEX
  5
21D
100
AcDbEntity
  8
0
 62
     0
100
AcDbVertex
100
AcDb2dVertex
 10
-0.208472
 20
2.441799
 30
0.0
 40
0.008713
 41
0.008713
  0
VERTEX
  5
21E
100
AcDbEntity
  8
0
 62
     0
100
AcDbVertex
100
AcDb2dVertex
 10
-0.256295
 20
2.441799
 30
0.0
 40
0.008713
 41
0.008713
  0
SEQEND
  5
21F
100
AcDbEntity
  8
0
 62
     0
  0
POLYLINE
  5
81
100
AcDbEntity
  8
0
 62
     0
100
AcDb2dPolyline
 66
     1
 10
0.0
 20
0.0
 30
0.0
 39
0.008713
  0
VERTEX
  5
220
100
AcDbEntity
  8
0
 62
     0
100
AcDbVertex
100
AcDb2dVertex
 10
-0.256295
 20
2.441799
 30
0.0
 40
0.008713
 41
0.008713
  0
VERTEX
  5
221
100
AcDbEntity
  8
0
 62
     0
100
AcDbVertex
100
AcDb2dVertex
 10
-0.283394
 20
2.421075
 30
0.0
 40
0.008713
 41
0.008713
  0
SEQEND
  5
222
100
AcDbEntity
  8
0
 62
     0
  0
POLYLINE
  5
82
100
AcDbEntity
  8
0
 62
     0
100
AcDb2dPolyline
 66
     1
 10
0.0
 20
0.0
 30
0.0
 39
0.008713
  0
VERTEX
  5
223
100
AcDbEntity
  8
0
 62
     0
100
AcDbVertex
100
AcDb2dVertex
 10
-0.283394
 20
2.421075
 30
0.0
 40
0.008713
 41
0.008713
  0
VERTEX
  5
224
100
AcDbEntity
  8
0
 62
     0
100
AcDbVertex
100
AcDb2dVertex
 10
-0.283394
 20
2.366878
 30
0.0
 40
0.008713
 41
0.008713
  0
SEQEND
  5
225
100
AcDbEntity
  8
0
 62
     0
  0
POLYLINE
  5
83
100
AcDbEntity
  8
0
 62
     0
100
AcDb2dPolyline
 66
     1
 10
0.0
 20
0.0
 30
0.0
 39
0.008713
  0
VERTEX
  5
226
100
AcDbEntity
  8
0
 62
     0
100
AcDbVertex
100
AcDb2dVertex
 10
-0.283394
 20
2.366878
 30
0.0
 40
0.008713
 41
0.008713
  0
VERTEX
  5
227
100
AcDbEntity
  8
0
 62
     0
100
AcDbVertex
100
AcDb2dVertex
 10
-0.182969
 20
2.366878
 30
0.0
 40
0.008713
 41
0.008713
  0
SEQEND
  5
228
100
AcDbEntity
  8
0
 62
     0
  0
POLYLINE
  5
84
100
AcDbEntity
  8
0
 62
     0
100
AcDb2dPolyline
 66
     1
 10
0.0
 20
0.0
 30
0.0
 39
0.008713
  0
VERTEX
  5
229
100
AcDbEntity
  8
0
 62
     0
100
AcDbVertex
100
AcDb2dVertex
 10
-0.128768
 20
2.366878
 30
0.0
 40
0.008713
 41
0.008713
  0
VERTEX
  5
22A
100
AcDbEntity
  8
0
 62
     0
100
AcDbVertex
100
AcDb2dVertex
 10
-0.128768
 20
2.393976
 30
0.0
 40
0.008713
 41
0.008713
  0
SEQEND
  5
22B
100
AcDbEntity
  8
0
 62
     0
  0
POLYLINE
  5
85
100
AcDbEntity
  8
0
 62
     0
100
AcDb2dPolyline
 66
     1
 10
0.0
 20
0.0
 30
0.0
 39
0.008713
  0
VERTEX
  5
22C
100
AcDbEntity
  8
0
 62
     0
100
AcDbVertex
100
AcDb2dVertex
 10
-0.080945
 20
2.494406
 30
0.0
 40
0.008713
 41
0.008713
  0
VERTEX
  5
22D
100
AcDbEntity
  8
0
 62
     0
100
AcDbVertex
100
AcDb2dVertex
 10
-0.055441
 20
2.521504
 30
0.0
 40
0.008713
 41
0.008713
  0
SEQEND
  5
22E
100
AcDbEntity
  8
0
 62
     0
  0
POLYLINE
  5
86
100
AcDbEntity
  8
0
 62
     0
100
AcDb2dPolyline
 66
     1
 10
0.0
 20
0.0
 30
0.0
 39
0.008713
  0
VERTEX
  5
22F
100
AcDbEntity
  8
0
 62
     0
100
AcDbVertex
100
AcDb2dVertex
 10
-0.055441
 20
2.521504
 30
0.0
 40
0.008713
 41
0.008713
  0
VERTEX
  5
230
100
AcDbEntity
  8
0
 62
     0
100
AcDbVertex
100
AcDb2dVertex
 10
-0.007618
 20
2.521504
 30
0.0
 40
0.008713
 41
0.008713
  0
SEQEND
  5
231
100
AcDbEntity
  8
0
 62
     0
  0
POLYLINE
  5
87
100
AcDbEntity
  8
0
 62
     0
100
AcDb2dPolyline
 66
     1
 10
0.0
 20
0.0
 30
0.0
 39
0.008713
  0
VERTEX
  5
232
100
AcDbEntity
  8
0
 62
     0
100
AcDbVertex
100
AcDb2dVertex
 10
-0.007618
 20
2.521504
 30
0.0
 40
0.008713
 41
0.008713
  0
VERTEX
  5
233
100
AcDbEntity
  8
0
 62
     0
100
AcDbVertex
100
AcDb2dVertex
 10
0.01948
 20
2.494406
 30
0.0
 40
0.008713
 41
0.008713
  0
SEQEND
  5
234
100
AcDbEntity
  8
0
 62
     0
  0
POLYLINE
  5
88
100
AcDbEntity
  8
0
 62
     0
100
AcDb2dPolyline
 66
     1
 10
0.0
 20
0.0
 30
0.0
 39
0.008713
  0
VERTEX
  5
235
100
AcDbEntity
  8
0
 62
     0
100
AcDbVertex
100
AcDb2dVertex
 10
0.01948
 20
2.494406
 30
0.0
 40
0.008713
 41
0.008713
  0
VERTEX
  5
236
100
AcDbEntity
  8
0
 62
     0
100
AcDbVertex
100
AcDb2dVertex
 10
0.01948
 20
2.468898
 30
0.0
 40
0.008713
 41
0.008713
  0
SEQEND
  5
237
100
AcDbEntity
  8
0
 62
     0
  0
POLYLINE
  5
89
100
AcDbEntity
  8
0
 62
     0
100
AcDb2dPolyline
 66
     1
 10
0.0
 20
0.0
 30
0.0
 39
0.008713
  0
VERTEX
  5
238
100
AcDbEntity
  8
0
 62
     0
100
AcDbVertex
100
AcDb2dVertex
 10
0.01948
 20
2.468898
 30
0.0
 40
0.008713
 41
0.008713
  0
VERTEX
  5
239
100
AcDbEntity
  8
0
 62
     0
100
AcDbVertex
100
AcDb2dVertex
 10
-0.007618
 20
2.441799
 30
0.0
 40
0.008713
 41
0.008713
  0
SEQEND
  5
23A
100
AcDbEntity
  8
0
 62
     0
  0
POLYLINE
  5
8A
100
AcDbEntity
  8
0
 62
     0
100
AcDb2dPolyline
 66
     1
 10
0.0
 20
0.0
 30
0.0
 39
0.008713
  0
VERTEX
  5
23B
100
AcDbEntity
  8
0
 62
     0
100
AcDbVertex
100
AcDb2dVertex
 10
-0.007618
 20
2.441799
 30
0.0
 40
0.008713
 41
0.008713
  0
VERTEX
  5
23C
100
AcDbEntity
  8
0
 62
     0
100
AcDbVertex
100
AcDb2dVertex
 10
-0.055441
 20
2.441799
 30
0.0
 40
0.008713
 41
0.008713
  0
SEQEND
  5
23D
100
AcDbEntity
  8
0
 62
     0
  0
POLYLINE
  5
8B
100
AcDbEntity
  8
0
 62
     0
100
AcDb2dPolyline
 66
     1
 10
0.0
 20
0.0
 30
0.0
 39
0.008713
  0
VERTEX
  5
23E
100
AcDbEntity
  8
0
 62
     0
100
AcDbVertex
100
AcDb2dVertex
 10
-0.055441
 20
2.441799
 30
0.0
 40
0.008713
 41
0.008713
  0
VERTEX
  5
23F
100
AcDbEntity
  8
0
 62
     0
100
AcDbVertex
100
AcDb2dVertex
 10
-0.080945
 20
2.421075
 30
0.0
 40
0.008713
 41
0.008713
  0
SEQEND
  5
240
100
AcDbEntity
  8
0
 62
     0
  0
POLYLINE
  5
8C
100
AcDbEntity
  8
0
 62
     0
100
AcDb2dPolyline
 66
     1
 10
0.0
 20
0.0
 30
0.0
 39
0.008713
  0
VERTEX
  5
241
100
AcDbEntity
  8
0
 62
     0
100
AcDbVertex
100
AcDb2dVertex
 10
-0.080945
 20
2.421075
 30
0.0
 40
0.008713
 41
0.008713
  0
VERTEX
  5
242
100
AcDbEntity
  8
0
 62
     0
100
AcDbVertex
100
AcDb2dVertex
 10
-0.080945
 20
2.366878
 30
0.0
 40
0.008713
 41
0.008713
  0
SEQEND
  5
243
100
AcDbEntity
  8
0
 62
     0
  0
POLYLINE
  5
8D
100
AcDbEntity
  8
0
 62
     0
100
AcDb2dPolyline
 66
     1
 10
0.0
 20
0.0
 30
0.0
 39
0.008713
  0
VERTEX
  5
244
100
AcDbEntity
  8
0
 62
     0
100
AcDbVertex
100
AcDb2dVertex
 10
-0.080945
 20
2.366878
 30
0.0
 40
0.008713
 41
0.008713
  0
VERTEX
  5
245
100
AcDbEntity
  8
0
 62
     0
100
AcDbVertex
100
AcDb2dVertex
 10
0.01948
 20
2.366878
 30
0.0
 40
0.008713
 41
0.008713
  0
SEQEND
  5
246
100
AcDbEntity
  8
0
 62
     0
  0
POLYLINE
  5
8E
100
AcDbEntity
  8
0
 62
     0
100
AcDb2dPolyline
 66
     1
 10
0.0
 20
0.0
 30
0.0
 39
0.008713
  0
VERTEX
  5
247
100
AcDbEntity
  8
0
 62
     0
100
AcDbVertex
100
AcDb2dVertex
 10
0.072087
 20
2.393976
 30
0.0
 40
0.008713
 41
0.008713
  0
VERTEX
  5
248
100
AcDbEntity
  8
0
 62
     0
100
AcDbVertex
100
AcDb2dVertex
 10
0.099185
 20
2.366878
 30
0.0
 40
0.008713
 41
0.008713
  0
SEQEND
  5
249
100
AcDbEntity
  8
0
 62
     0
  0
POLYLINE
  5
8F
100
AcDbEntity
  8
0
 62
     0
100
AcDb2dPolyline
 66
     1
 10
0.0
 20
0.0
 30
0.0
 39
0.008713
  0
VERTEX
  5
24A
100
AcDbEntity
  8
0
 62
     0
100
AcDbVertex
100
AcDb2dVertex
 10
0.099185
 20
2.366878
 30
0.0
 40
0.008713
 41
0.008713
  0
VERTEX
  5
24B
100
AcDbEntity
  8
0
 62
     0
100
AcDbVertex
100
AcDb2dVertex
 10
0.147008
 20
2.366878
 30
0.0
 40
0.008713
 41
0.008713
  0
SEQEND
  5
24C
100
AcDbEntity
  8
0
 62
     0
  0
POLYLINE
  5
90
100
AcDbEntity
  8
0
 62
     0
100
AcDb2dPolyline
 66
     1
 10
0.0
 20
0.0
 30
0.0
 39
0.008713
  0
VERTEX
  5
24D
100
AcDbEntity
  8
0
 62
     0
100
AcDbVertex
100
AcDb2dVertex
 10
0.147008
 20
2.366878
 30
0.0
 40
0.008713
 41
0.008713
  0
VERTEX
  5
24E
100
AcDbEntity
  8
0
 62
     0
100
AcDbVertex
100
AcDb2dVertex
 10
0.174106
 20
2.393976
 30
0.0
 40
0.008713
 41
0.008713
  0
SEQEND
  5
24F
100
AcDbEntity
  8
0
 62
     0
  0
POLYLINE
  5
91
100
AcDbEntity
  8
0
 62
     0
100
AcDb2dPolyline
 66
     1
 10
0.0
 20
0.0
 30
0.0
 39
0.008713
  0
VERTEX
  5
250
100
AcDbEntity
  8
0
 62
     0
100
AcDbVertex
100
AcDb2dVertex
 10
0.174106
 20
2.393976
 30
0.0
 40
0.008713
 41
0.008713
  0
VERTEX
  5
251
100
AcDbEntity
  8
0
 62
     0
100
AcDbVertex
100
AcDb2dVertex
 10
0.174106
 20
2.441799
 30
0.0
 40
0.008713
 41
0.008713
  0
SEQEND
  5
252
100
AcDbEntity
  8
0
 62
     0
  0
POLYLINE
  5
92
100
AcDbEntity
  8
0
 62
     0
100
AcDb2dPolyline
 66
     1
 10
0.0
 20
0.0
 30
0.0
 39
0.008713
  0
VERTEX
  5
253
100
AcDbEntity
  8
0
 62
     0
100
AcDbVertex
100
AcDb2dVertex
 10
0.174106
 20
2.441799
 30
0.0
 40
0.008713
 41
0.008713
  0
VERTEX
  5
254
100
AcDbEntity
  8
0
 62
     0
100
AcDbVertex
100
AcDb2dVertex
 10
0.147008
 20
2.468898
 30
0.0
 40
0.008713
 41
0.008713
  0
SEQEND
  5
255
100
AcDbEntity
  8
0
 62
     0
  0
POLYLINE
  5
93
100
AcDbEntity
  8
0
 62
     0
100
AcDb2dPolyline
 66
     1
 10
0.0
 20
0.0
 30
0.0
 39
0.008713
  0
VERTEX
  5
256
100
AcDbEntity
  8
0
 62
     0
100
AcDbVertex
100
AcDb2dVertex
 10
0.147008
 20
2.468898
 30
0.0
 40
0.008713
 41
0.008713
  0
VERTEX
  5
257
100
AcDbEntity
  8
0
 62
     0
100
AcDbVertex
100
AcDb2dVertex
 10
0.072087
 20
2.468898
 30
0.0
 40
0.008713
 41
0.008713
  0
SEQEND
  5
258
100
AcDbEntity
  8
0
 62
     0
  0
POLYLINE
  5
94
100
AcDbEntity
  8
0
 62
     0
100
AcDb2dPolyline
 66
     1
 10
0.0
 20
0.0
 30
0.0
 39
0.008713
  0
VERTEX
  5
259
100
AcDbEntity
  8
0
 62
     0
100
AcDbVertex
100
AcDb2dVertex
 10
0.072087
 20
2.468898
 30
0.0
 40
0.008713
 41
0.008713
  0
VERTEX
  5
25A
100
AcDbEntity
  8
0
 62
     0
100
AcDbVertex
100
AcDb2dVertex
 10
0.072087
 20
2.521504
 30
0.0
 40
0.008713
 41
0.008713
  0
SEQEND
  5
25B
100
AcDbEntity
  8
0
 62
     0
  0
POLYLINE
  5
95
100
AcDbEntity
  8
0
 62
     0
100
AcDb2dPolyline
 66
     1
 10
0.0
 20
0.0
 30
0.0
 39
0.008713
  0
VERTEX
  5
25C
100
AcDbEntity
  8
0
 62
     0
100
AcDbVertex
100
AcDb2dVertex
 10
0.072087
 20
2.521504
 30
0.0
 40
0.008713
 41
0.008713
  0
VERTEX
  5
25D
100
AcDbEntity
  8
0
 62
     0
100
AcDbVertex
100
AcDb2dVertex
 10
0.174106
 20
2.521504
 30
0.0
 40
0.008713
 41
0.008713
  0
SEQEND
  5
25E
100
AcDbEntity
  8
0
 62
     0
  0
POLYLINE
  5
96
100
AcDbEntity
  8
0
 62
     0
100
AcDb2dPolyline
 66
     1
 10
0.0
 20
0.0
 30
0.0
 39
0.008713
  0
VERTEX
  5
25F
100
AcDbEntity
  8
0
 62
     0
100
AcDbVertex
100
AcDb2dVertex
 10
-1.005512
 20
1.847209
 30
0.0
 40
0.008713
 41
0.008713
  0
VERTEX
  5
260
100
AcDbEntity
  8
0
 62
     0
100
AcDbVertex
100
AcDb2dVertex
 10
-1.005512
 20
1.847209
 30
0.0
 40
0.008713
 41
0.008713
  0
SEQEND
  5
261
100
AcDbEntity
  8
0
 62
     0
  0
POLYLINE
  5
97
100
AcDbEntity
  8
0
 62
     0
100
AcDb2dPolyline
 66
     1
 10
0.0
 20
0.0
 30
0.0
 39
0.008713
  0
VERTEX
  5
262
100
AcDbEntity
  8
0
 62
     0
100
AcDbVertex
100
AcDb2dVertex
 10
0.896224
 20
1.808949
 30
0.0
 40
0.008713
 41
0.008713
  0
VERTEX
  5
263
100
AcDbEntity
  8
0
 62
     0
100
AcDbVertex
100
AcDb2dVertex
 10
0.896224
 20
1.808949
 30
0.0
 40
0.008713
 41
0.008713
  0
SEQEND
  5
264
100
AcDbEntity
  8
0
 62
     0
  0
POLYLINE
  5
98
100
AcDbEntity
  8
0
 62
     0
100
AcDb2dPolyline
 66
     1
 10
0.0
 20
0.0
 30
0.0
 39
0.008713
  0
VERTEX
  5
265
100
AcDbEntity
  8
0
 62
     0
100
AcDbVertex
100
AcDb2dVertex
 10
0.896224
 20
2.441799
 30
0.0
 40
0.008713
 41
0.008713
  0
VERTEX
  5
266
100
AcDbEntity
  8
0
 62
     0
100
AcDbVertex
100
AcDb2dVertex
 10
0.896224
 20
2.441799
 30
0.0
 40
0.008713
 41
0.008713
  0
SEQEND
  5
267
100
AcDbEntity
  8
0
 62
     0
  0
POLYLINE
  5
99
100
AcDbEntity
  8
0
 62
     0
100
AcDb2dPolyline
 66
     1
 10
0.0
 20
0.0
 30
0.0
 39
0.008713
  0
VERTEX
  5
268
100
AcDbEntity
  8
0
 62
     0
100
AcDbVertex
100
AcDb2dVertex
 10
-1.03261
 20
1.872713
 30
0.0
 40
0.008713
 41
0.008713
  0
VERTEX
  5
269
100
AcDbEntity
  8
0
 62
     0
100
AcDbVertex
100
AcDb2dVertex
 10
-1.770669
 20
1.872713
 30
0.0
 40
0.008713
 41
0.008713
  0
SEQEND
  5
26A
100
AcDbEntity
  8
0
 62
     0
  0
POLYLINE
  5
9A
100
AcDbEntity
  8
0
 62
     0
100
AcDb2dPolyline
 66
     1
 10
0.0
 20
0.0
 30
0.0
 39
0.008713
  0
VERTEX
  5
26B
100
AcDbEntity
  8
0
 62
     0
100
AcDbVertex
100
AcDb2dVertex
 10
-1.03261
 20
0.182992
 30
0.0
 40
0.008713
 41
0.008713
  0
VERTEX
  5
26C
100
AcDbEntity
  8
0
 62
     0
100
AcDbVertex
100
AcDb2dVertex
 10
-1.770669
 20
0.182992
 30
0.0
 40
0.008713
 41
0.008713
  0
SEQEND
  5
26D
100
AcDbEntity
  8
0
 62
     0
  0
POLYLINE
  5
9B
100
AcDbEntity
  8
0
 62
     0
100
AcDb2dPolyline
 66
     1
 10
0.0
 20
0.0
 30
0.0
 39
0.008713
  0
VERTEX
  5
26E
100
AcDbEntity
  8
0
 62
     0
100
AcDbVertex
100
AcDb2dVertex
 10
-1.617638
 20
1.719681
 30
0.0
 40
0.008713
 41
0.008713
  0
VERTEX
  5
26F
100
AcDbEntity
  8
0
 62
     0
100
AcDbVertex
100
AcDb2dVertex
 10
-1.617638
 20
1.177697
 30
0.0
 40
0.008713
 41
0.008713
  0
SEQEND
  5
270
100
AcDbEntity
  8
0
 62
     0
  0
POLYLINE
  5
9C
100
AcDbEntity
  8
0
 62
     0
100
AcDb2dPolyline
 66
     1
 10
0.0
 20
0.0
 30
0.0
 39
0.008713
  0
VERTEX
  5
271
100
AcDbEntity
  8
0
 62
     0
100
AcDbVertex
100
AcDb2dVertex
 10
-1.617638
 20
0.332835
 30
0.0
 40
0.008713
 41
0.008713
  0
VERTEX
  5
272
100
AcDbEntity
  8
0
 62
     0
100
AcDbVertex
100
AcDb2dVertex
 10
-1.617638
 20
0.874819
 30
0.0
 40
0.008713
 41
0.008713
  0
SEQEND
  5
273
100
AcDbEntity
  8
0
 62
     0
  0
POLYLINE
  5
9D
100
AcDbEntity
  8
0
 62
     0
100
AcDb2dPolyline
 66
     1
 10
0.0
 20
0.0
 30
0.0
 39
0.008713
  0
VERTEX
  5
274
100
AcDbEntity
  8
0
 62
     0
100
AcDbVertex
100
AcDb2dVertex
 10
-1.643142
 20
1.719681
 30
0.0
 40
0.008713
 41
0.008713
  0
VERTEX
  5
275
100
AcDbEntity
  8
0
 62
     0
100
AcDbVertex
100
AcDb2dVertex
 10
-1.590539
 20
1.719681
 30
0.0
 40
0.008713
 41
0.008713
  0
SEQEND
  5
276
100
AcDbEntity
  8
0
 62
     0
  0
POLYLINE
  5
9E
100
AcDbEntity
  8
0
 62
     0
100
AcDb2dPolyline
 66
     1
 10
0.0
 20
0.0
 30
0.0
 39
0.008713
  0
VERTEX
  5
277
100
AcDbEntity
  8
0
 62
     0
100
AcDbVertex
100
AcDb2dVertex
 10
-1.590539
 20
1.719681
 30
0.0
 40
0.008713
 41
0.008713
  0
VERTEX
  5
278
100
AcDbEntity
  8
0
 62
     0
100
AcDbVertex
100
AcDb2dVertex
 10
-1.617638
 20
1.872713
 30
0.0
 40
0.008713
 41
0.008713
  0
SEQEND
  5
279
100
AcDbEntity
  8
0
 62
     0
  0
POLYLINE
  5
9F
100
AcDbEntity
  8
0
 62
     0
100
AcDb2dPolyline
 66
     1
 10
0.0
 20
0.0
 30
0.0
 39
0.008713
  0
VERTEX
  5
27A
100
AcDbEntity
  8
0
 62
     0
100
AcDbVertex
100
AcDb2dVertex
 10
-1.617638
 20
1.872713
 30
0.0
 40
0.008713
 41
0.008713
  0
VERTEX
  5
27B
100
AcDbEntity
  8
0
 62
     0
100
AcDbVertex
100
AcDb2dVertex
 10
-1.643142
 20
1.719681
 30
0.0
 40
0.008713
 41
0.008713
  0
SEQEND
  5
27C
100
AcDbEntity
  8
0
 62
     0
  0
POLYLINE
  5
A0
100
AcDbEntity
  8
0
 62
     0
100
AcDb2dPolyline
 66
     1
 10
0.0
 20
0.0
 30
0.0
 39
0.008713
  0
VERTEX
  5
27D
100
AcDbEntity
  8
0
 62
     0
100
AcDbVertex
100
AcDb2dVertex
 10
-1.643142
 20
0.332835
 30
0.0
 40
0.008713
 41
0.008713
  0
VERTEX
  5
27E
100
AcDbEntity
  8
0
 62
     0
100
AcDbVertex
100
AcDb2dVertex
 10
-1.590539
 20
0.332835
 30
0.0
 40
0.008713
 41
0.008713
  0
SEQEND
  5
27F
100
AcDbEntity
  8
0
 62
     0
  0
POLYLINE
  5
A1
100
AcDbEntity
  8
0
 62
     0
100
AcDb2dPolyline
 66
     1
 10
0.0
 20
0.0
 30
0.0
 39
0.008713
  0
VERTEX
  5
280
100
AcDbEntity
  8
0
 62
     0
100
AcDbVertex
100
AcDb2dVertex
 10
-1.590539
 20
0.332835
 30
0.0
 40
0.008713
 41
0.008713
  0
VERTEX
  5
281
100
AcDbEntity
  8
0
 62
     0
100
AcDbVertex
100
AcDb2dVertex
 10
-1.617638
 20
0.182992
 30
0.0
 40
0.008713
 41
0.008713
  0
SEQEND
  5
282
100
AcDbEntity
  8
0
 62
     0
  0
POLYLINE
  5
A2
100
AcDbEntity
  8
0
 62
     0
100
AcDb2dPolyline
 66
     1
 10
0.0
 20
0.0
 30
0.0
 39
0.008713
  0
VERTEX
  5
283
100
AcDbEntity
  8
0
 62
     0
100
AcDbVertex
100
AcDb2dVertex
 10
-1.617638
 20
0.182992
 30
0.0
 40
0.008713
 41
0.008713
  0
VERTEX
  5
284
100
AcDbEntity
  8
0
 62
     0
100
AcDbVertex
100
AcDb2dVertex
 10
-1.643142
 20
0.332835
 30
0.0
 40
0.008713
 41
0.008713
  0
SEQEND
  5
285
100
AcDbEntity
  8
0
 62
     0
  0
POLYLINE
  5
A3
100
AcDbEntity
  8
0
 62
     0
100
AcDb2dPolyline
 66
     1
 10
0.0
 20
0.0
 30
0.0
 39
0.008713
  0
VERTEX
  5
286
100
AcDbEntity
  8
0
 62
     0
100
AcDbVertex
100
AcDb2dVertex
 10
-1.818492
 20
1.075673
 30
0.0
 40
0.008713
 41
0.008713
  0
VERTEX
  5
287
100
AcDbEntity
  8
0
 62
     0
100
AcDbVertex
100
AcDb2dVertex
 10
-1.792988
 20
1.102776
 30
0.0
 40
0.008713
 41
0.008713
  0
SEQEND
  5
288
100
AcDbEntity
  8
0
 62
     0
  0
POLYLINE
  5
A4
100
AcDbEntity
  8
0
 62
     0
100
AcDb2dPolyline
 66
     1
 10
0.0
 20
0.0
 30
0.0
 39
0.008713
  0
VERTEX
  5
289
100
AcDbEntity
  8
0
 62
     0
100
AcDbVertex
100
AcDb2dVertex
 10
-1.792988
 20
1.102776
 30
0.0
 40
0.008713
 41
0.008713
  0
VERTEX
  5
28A
100
AcDbEntity
  8
0
 62
     0
100
AcDbVertex
100
AcDb2dVertex
 10
-1.745165
 20
1.102776
 30
0.0
 40
0.008713
 41
0.008713
  0
SEQEND
  5
28B
100
AcDbEntity
  8
0
 62
     0
  0
POLYLINE
  5
A5
100
AcDbEntity
  8
0
 62
     0
100
AcDb2dPolyline
 66
     1
 10
0.0
 20
0.0
 30
0.0
 39
0.008713
  0
VERTEX
  5
28C
100
AcDbEntity
  8
0
 62
     0
100
AcDbVertex
100
AcDb2dVertex
 10
-1.745165
 20
1.102776
 30
0.0
 40
0.008713
 41
0.008713
  0
VERTEX
  5
28D
100
AcDbEntity
  8
0
 62
     0
100
AcDbVertex
100
AcDb2dVertex
 10
-1.718063
 20
1.075673
 30
0.0
 40
0.008713
 41
0.008713
  0
SEQEND
  5
28E
100
AcDbEntity
  8
0
 62
     0
  0
POLYLINE
  5
A6
100
AcDbEntity
  8
0
 62
     0
100
AcDb2dPolyline
 66
     1
 10
0.0
 20
0.0
 30
0.0
 39
0.008713
  0
VERTEX
  5
28F
100
AcDbEntity
  8
0
 62
     0
100
AcDbVertex
100
AcDb2dVertex
 10
-1.718063
 20
1.075673
 30
0.0
 40
0.008713
 41
0.008713
  0
VERTEX
  5
290
100
AcDbEntity
  8
0
 62
     0
100
AcDbVertex
100
AcDb2dVertex
 10
-1.718063
 20
1.054953
 30
0.0
 40
0.008713
 41
0.008713
  0
SEQEND
  5
291
100
AcDbEntity
  8
0
 62
     0
  0
POLYLINE
  5
A7
100
AcDbEntity
  8
0
 62
     0
100
AcDb2dPolyline
 66
     1
 10
0.0
 20
0.0
 30
0.0
 39
0.008713
  0
VERTEX
  5
292
100
AcDbEntity
  8
0
 62
     0
100
AcDbVertex
100
AcDb2dVertex
 10
-1.718063
 20
1.054953
 30
0.0
 40
0.008713
 41
0.008713
  0
VERTEX
  5
293
100
AcDbEntity
  8
0
 62
     0
100
AcDbVertex
100
AcDb2dVertex
 10
-1.745165
 20
1.02785
 30
0.0
 40
0.008713
 41
0.008713
  0
SEQEND
  5
294
100
AcDbEntity
  8
0
 62
     0
  0
POLYLINE
  5
A8
100
AcDbEntity
  8
0
 62
     0
100
AcDb2dPolyline
 66
     1
 10
0.0
 20
0.0
 30
0.0
 39
0.008713
  0
VERTEX
  5
295
100
AcDbEntity
  8
0
 62
     0
100
AcDbVertex
100
AcDb2dVertex
 10
-1.745165
 20
1.02785
 30
0.0
 40
0.008713
 41
0.008713
  0
VERTEX
  5
296
100
AcDbEntity
  8
0
 62
     0
100
AcDbVertex
100
AcDb2dVertex
 10
-1.792988
 20
1.02785
 30
0.0
 40
0.008713
 41
0.008713
  0
SEQEND
  5
297
100
AcDbEntity
  8
0
 62
     0
  0
POLYLINE
  5
A9
100
AcDbEntity
  8
0
 62
     0
100
AcDb2dPolyline
 66
     1
 10
0.0
 20
0.0
 30
0.0
 39
0.008713
  0
VERTEX
  5
298
100
AcDbEntity
  8
0
 62
     0
100
AcDbVertex
100
AcDb2dVertex
 10
-1.792988
 20
1.02785
 30
0.0
 40
0.008713
 41
0.008713
  0
VERTEX
  5
299
100
AcDbEntity
  8
0
 62
     0
100
AcDbVertex
100
AcDb2dVertex
 10
-1.818492
 20
1.002346
 30
0.0
 40
0.008713
 41
0.008713
  0
SEQEND
  5
29A
100
AcDbEntity
  8
0
 62
     0
  0
POLYLINE
  5
AA
100
AcDbEntity
  8
0
 62
     0
100
AcDb2dPolyline
 66
     1
 10
0.0
 20
0.0
 30
0.0
 39
0.008713
  0
VERTEX
  5
29B
100
AcDbEntity
  8
0
 62
     0
100
AcDbVertex
100
AcDb2dVertex
 10
-1.818492
 20
1.002346
 30
0.0
 40
0.008713
 41
0.008713
  0
VERTEX
  5
29C
100
AcDbEntity
  8
0
 62
     0
100
AcDbVertex
100
AcDb2dVertex
 10
-1.818492
 20
0.954524
 30
0.0
 40
0.008713
 41
0.008713
  0
SEQEND
  5
29D
100
AcDbEntity
  8
0
 62
     0
  0
POLYLINE
  5
AB
100
AcDbEntity
  8
0
 62
     0
100
AcDb2dPolyline
 66
     1
 10
0.0
 20
0.0
 30
0.0
 39
0.008713
  0
VERTEX
  5
29E
100
AcDbEntity
  8
0
 62
     0
100
AcDbVertex
100
AcDb2dVertex
 10
-1.818492
 20
0.954524
 30
0.0
 40
0.008713
 41
0.008713
  0
VERTEX
  5
29F
100
AcDbEntity
  8
0
 62
     0
100
AcDbVertex
100
AcDb2dVertex
 10
-1.718063
 20
0.954524
 30
0.0
 40
0.008713
 41
0.008713
  0
SEQEND
  5
2A0
100
AcDbEntity
  8
0
 62
     0
  0
POLYLINE
  5
AC
100
AcDbEntity
  8
0
 62
     0
100
AcDb2dPolyline
 66
     1
 10
0.0
 20
0.0
 30
0.0
 39
0.008713
  0
VERTEX
  5
2A1
100
AcDbEntity
  8
0
 62
     0
100
AcDbVertex
100
AcDb2dVertex
 10
-1.670244
 20
0.954524
 30
0.0
 40
0.008713
 41
0.008713
  0
VERTEX
  5
2A2
100
AcDbEntity
  8
0
 62
     0
100
AcDbVertex
100
AcDb2dVertex
 10
-1.670244
 20
0.975248
 30
0.0
 40
0.008713
 41
0.008713
  0
SEQEND
  5
2A3
100
AcDbEntity
  8
0
 62
     0
  0
POLYLINE
  5
AD
100
AcDbEntity
  8
0
 62
     0
100
AcDb2dPolyline
 66
     1
 10
0.0
 20
0.0
 30
0.0
 39
0.008713
  0
VERTEX
  5
2A4
100
AcDbEntity
  8
0
 62
     0
100
AcDbVertex
100
AcDb2dVertex
 10
-1.590539
 20
0.954524
 30
0.0
 40
0.008713
 41
0.008713
  0
VERTEX
  5
2A5
100
AcDbEntity
  8
0
 62
     0
100
AcDbVertex
100
AcDb2dVertex
 10
-1.617638
 20
0.975248
 30
0.0
 40
0.008713
 41
0.008713
  0
SEQEND
  5
2A6
100
AcDbEntity
  8
0
 62
     0
  0
POLYLINE
  5
AE
100
AcDbEntity
  8
0
 62
     0
100
AcDb2dPolyline
 66
     1
 10
0.0
 20
0.0
 30
0.0
 39
0.008713
  0
VERTEX
  5
2A7
100
AcDbEntity
  8
0
 62
     0
100
AcDbVertex
100
AcDb2dVertex
 10
-1.617638
 20
0.975248
 30
0.0
 40
0.008713
 41
0.008713
  0
VERTEX
  5
2A8
100
AcDbEntity
  8
0
 62
     0
100
AcDbVertex
100
AcDb2dVertex
 10
-1.617638
 20
1.075673
 30
0.0
 40
0.008713
 41
0.008713
  0
SEQEND
  5
2A9
100
AcDbEntity
  8
0
 62
     0
  0
POLYLINE
  5
AF
100
AcDbEntity
  8
0
 62
     0
100
AcDb2dPolyline
 66
     1
 10
0.0
 20
0.0
 30
0.0
 39
0.008713
  0
VERTEX
  5
2AA
100
AcDbEntity
  8
0
 62
     0
100
AcDbVertex
100
AcDb2dVertex
 10
-1.617638
 20
1.075673
 30
0.0
 40
0.008713
 41
0.008713
  0
VERTEX
  5
2AB
100
AcDbEntity
  8
0
 62
     0
100
AcDbVertex
100
AcDb2dVertex
 10
-1.590539
 20
1.102776
 30
0.0
 40
0.008713
 41
0.008713
  0
SEQEND
  5
2AC
100
AcDbEntity
  8
0
 62
     0
  0
POLYLINE
  5
B0
100
AcDbEntity
  8
0
 62
     0
100
AcDb2dPolyline
 66
     1
 10
0.0
 20
0.0
 30
0.0
 39
0.008713
  0
VERTEX
  5
2AD
100
AcDbEntity
  8
0
 62
     0
100
AcDbVertex
100
AcDb2dVertex
 10
-1.590539
 20
1.102776
 30
0.0
 40
0.008713
 41
0.008713
  0
VERTEX
  5
2AE
100
AcDbEntity
  8
0
 62
     0
100
AcDbVertex
100
AcDb2dVertex
 10
-1.569815
 20
1.102776
 30
0.0
 40
0.008713
 41
0.008713
  0
SEQEND
  5
2AF
100
AcDbEntity
  8
0
 62
     0
  0
POLYLINE
  5
B1
100
AcDbEntity
  8
0
 62
     0
100
AcDb2dPolyline
 66
     1
 10
0.0
 20
0.0
 30
0.0
 39
0.008713
  0
VERTEX
  5
2B0
100
AcDbEntity
  8
0
 62
     0
100
AcDbVertex
100
AcDb2dVertex
 10
-1.569815
 20
1.102776
 30
0.0
 40
0.008713
 41
0.008713
  0
VERTEX
  5
2B1
100
AcDbEntity
  8
0
 62
     0
100
AcDbVertex
100
AcDb2dVertex
 10
-1.542717
 20
1.075673
 30
0.0
 40
0.008713
 41
0.008713
  0
SEQEND
  5
2B2
100
AcDbEntity
  8
0
 62
     0
  0
POLYLINE
  5
B2
100
AcDbEntity
  8
0
 62
     0
100
AcDb2dPolyline
 66
     1
 10
0.0
 20
0.0
 30
0.0
 39
0.008713
  0
VERTEX
  5
2B3
100
AcDbEntity
  8
0
 62
     0
100
AcDbVertex
100
AcDb2dVertex
 10
-1.542717
 20
1.075673
 30
0.0
 40
0.008713
 41
0.008713
  0
VERTEX
  5
2B4
100
AcDbEntity
  8
0
 62
     0
100
AcDbVertex
100
AcDb2dVertex
 10
-1.542717
 20
0.975248
 30
0.0
 40
0.008713
 41
0.008713
  0
SEQEND
  5
2B5
100
AcDbEntity
  8
0
 62
     0
  0
POLYLINE
  5
B3
100
AcDbEntity
  8
0
 62
     0
100
AcDb2dPolyline
 66
     1
 10
0.0
 20
0.0
 30
0.0
 39
0.008713
  0
VERTEX
  5
2B6
100
AcDbEntity
  8
0
 62
     0
100
AcDbVertex
100
AcDb2dVertex
 10
-1.542717
 20
0.975248
 30
0.0
 40
0.008713
 41
0.008713
  0
VERTEX
  5
2B7
100
AcDbEntity
  8
0
 62
     0
100
AcDbVertex
100
AcDb2dVertex
 10
-1.569815
 20
0.954524
 30
0.0
 40
0.008713
 41
0.008713
  0
SEQEND
  5
2B8
100
AcDbEntity
  8
0
 62
     0
  0
POLYLINE
  5
B4
100
AcDbEntity
  8
0
 62
     0
100
AcDb2dPolyline
 66
     1
 10
0.0
 20
0.0
 30
0.0
 39
0.008713
  0
VERTEX
  5
2B9
100
AcDbEntity
  8
0
 62
     0
100
AcDbVertex
100
AcDb2dVertex
 10
-1.569815
 20
0.954524
 30
0.0
 40
0.008713
 41
0.008713
  0
VERTEX
  5
2BA
100
AcDbEntity
  8
0
 62
     0
100
AcDbVertex
100
AcDb2dVertex
 10
-1.590539
 20
0.954524
 30
0.0
 40
0.008713
 41
0.008713
  0
SEQEND
  5
2BB
100
AcDbEntity
  8
0
 62
     0
  0
POLYLINE
  5
B5
100
AcDbEntity
  8
0
 62
     0
100
AcDb2dPolyline
 66
     1
 10
0.0
 20
0.0
 30
0.0
 39
0.008713
  0
VERTEX
  5
2BC
100
AcDbEntity
  8
0
 62
     0
100
AcDbVertex
100
AcDb2dVertex
 10
-1.463012
 20
0.954524
 30
0.0
 40
0.008713
 41
0.008713
  0
VERTEX
  5
2BD
100
AcDbEntity
  8
0
 62
     0
100
AcDbVertex
100
AcDb2dVertex
 10
-1.49011
 20
0.975248
 30
0.0
 40
0.008713
 41
0.008713
  0
SEQEND
  5
2BE
100
AcDbEntity
  8
0
 62
     0
  0
POLYLINE
  5
B6
100
AcDbEntity
  8
0
 62
     0
100
AcDb2dPolyline
 66
     1
 10
0.0
 20
0.0
 30
0.0
 39
0.008713
  0
VERTEX
  5
2BF
100
AcDbEntity
  8
0
 62
     0
100
AcDbVertex
100
AcDb2dVertex
 10
-1.49011
 20
0.975248
 30
0.0
 40
0.008713
 41
0.008713
  0
VERTEX
  5
2C0
100
AcDbEntity
  8
0
 62
     0
100
AcDbVertex
100
AcDb2dVertex
 10
-1.49011
 20
1.075673
 30
0.0
 40
0.008713
 41
0.008713
  0
SEQEND
  5
2C1
100
AcDbEntity
  8
0
 62
     0
  0
POLYLINE
  5
B7
100
AcDbEntity
  8
0
 62
     0
100
AcDb2dPolyline
 66
     1
 10
0.0
 20
0.0
 30
0.0
 39
0.008713
  0
VERTEX
  5
2C2
100
AcDbEntity
  8
0
 62
     0
100
AcDbVertex
100
AcDb2dVertex
 10
-1.49011
 20
1.075673
 30
0.0
 40
0.008713
 41
0.008713
  0
VERTEX
  5
2C3
100
AcDbEntity
  8
0
 62
     0
100
AcDbVertex
100
AcDb2dVertex
 10
-1.463012
 20
1.102776
 30
0.0
 40
0.008713
 41
0.008713
  0
SEQEND
  5
2C4
100
AcDbEntity
  8
0
 62
     0
  0
POLYLINE
  5
B8
100
AcDbEntity
  8
0
 62
     0
100
AcDb2dPolyline
 66
     1
 10
0.0
 20
0.0
 30
0.0
 39
0.008713
  0
VERTEX
  5
2C5
100
AcDbEntity
  8
0
 62
     0
100
AcDbVertex
100
AcDb2dVertex
 10
-1.463012
 20
1.102776
 30
0.0
 40
0.008713
 41
0.008713
  0
VERTEX
  5
2C6
100
AcDbEntity
  8
0
 62
     0
100
AcDbVertex
100
AcDb2dVertex
 10
-1.442287
 20
1.102776
 30
0.0
 40
0.008713
 41
0.008713
  0
SEQEND
  5
2C7
100
AcDbEntity
  8
0
 62
     0
  0
POLYLINE
  5
B9
100
AcDbEntity
  8
0
 62
     0
100
AcDb2dPolyline
 66
     1
 10
0.0
 20
0.0
 30
0.0
 39
0.008713
  0
VERTEX
  5
2C8
100
AcDbEntity
  8
0
 62
     0
100
AcDbVertex
100
AcDb2dVertex
 10
-1.442287
 20
1.102776
 30
0.0
 40
0.008713
 41
0.008713
  0
VERTEX
  5
2C9
100
AcDbEntity
  8
0
 62
     0
100
AcDbVertex
100
AcDb2dVertex
 10
-1.415189
 20
1.075673
 30
0.0
 40
0.008713
 41
0.008713
  0
SEQEND
  5
2CA
100
AcDbEntity
  8
0
 62
     0
  0
POLYLINE
  5
BA
100
AcDbEntity
  8
0
 62
     0
100
AcDb2dPolyline
 66
     1
 10
0.0
 20
0.0
 30
0.0
 39
0.008713
  0
VERTEX
  5
2CB
100
AcDbEntity
  8
0
 62
     0
100
AcDbVertex
100
AcDb2dVertex
 10
-1.415189
 20
1.075673
 30
0.0
 40
0.008713
 41
0.008713
  0
VERTEX
  5
2CC
100
AcDbEntity
  8
0
 62
     0
100
AcDbVertex
100
AcDb2dVertex
 10
-1.415189
 20
0.975248
 30
0.0
 40
0.008713
 41
0.008713
  0
SEQEND
  5
2CD
100
AcDbEntity
  8
0
 62
     0
  0
POLYLINE
  5
BB
100
AcDbEntity
  8
0
 62
     0
100
AcDb2dPolyline
 66
     1
 10
0.0
 20
0.0
 30
0.0
 39
0.008713
  0
VERTEX
  5
2CE
100
AcDbEntity
  8
0
 62
     0
100
AcDbVertex
100
AcDb2dVertex
 10
-1.415189
 20
0.975248
 30
0.0
 40
0.008713
 41
0.008713
  0
VERTEX
  5
2CF
100
AcDbEntity
  8
0
 62
     0
100
AcDbVertex
100
AcDb2dVertex
 10
-1.442287
 20
0.954524
 30
0.0
 40
0.008713
 41
0.008713
  0
SEQEND
  5
2D0
100
AcDbEntity
  8
0
 62
     0
  0
POLYLINE
  5
BC
100
AcDbEntity
  8
0
 62
     0
100
AcDb2dPolyline
 66
     1
 10
0.0
 20
0.0
 30
0.0
 39
0.008713
  0
VERTEX
  5
2D1
100
AcDbEntity
  8
0
 62
     0
100
AcDbVertex
100
AcDb2dVertex
 10
-1.442287
 20
0.954524
 30
0.0
 40
0.008713
 41
0.008713
  0
VERTEX
  5
2D2
100
AcDbEntity
  8
0
 62
     0
100
AcDbVertex
100
AcDb2dVertex
 10
-1.463012
 20
0.954524
 30
0.0
 40
0.008713
 41
0.008713
  0
SEQEND
  5
2D3
100
AcDbEntity
  8
0
 62
     0
  0
POLYLINE
  5
BD
100
AcDbEntity
  8
0
 62
     0
100
AcDb2dPolyline
 66
     1
 10
0.0
 20
0.0
 30
0.0
 39
0.008713
  0
VERTEX
  5
2D4
100
AcDbEntity
  8
0
 62
     0
100
AcDbVertex
100
AcDb2dVertex
 10
-0.980008
 20
1.872713
 30
0.0
 40
0.008713
 41
0.008713
  0
VERTEX
  5
2D5
100
AcDbEntity
  8
0
 62
     0
100
AcDbVertex
100
AcDb2dVertex
 10
-0.980008
 20
1.872713
 30
0.0
 40
0.008713
 41
0.008713
  0
SEQEND
  5
2D6
100
AcDbEntity
  8
0
 62
     0
  0
POLYLINE
  5
BE
100
AcDbEntity
  8
0
 62
     0
100
AcDb2dPolyline
 66
     1
 10
0.0
 20
0.0
 30
0.0
 39
0.008713
  0
VERTEX
  5
2D7
100
AcDbEntity
  8
0
 62
     0
100
AcDbVertex
100
AcDb2dVertex
 10
-0.980008
 20
0.182992
 30
0.0
 40
0.008713
 41
0.008713
  0
VERTEX
  5
2D8
100
AcDbEntity
  8
0
 62
     0
100
AcDbVertex
100
AcDb2dVertex
 10
-0.980008
 20
0.182992
 30
0.0
 40
0.008713
 41
0.008713
  0
SEQEND
  5
2D9
100
AcDbEntity
  8
0
 62
     0
  0
POLYLINE
  5
BF
100
AcDbEntity
  8
0
 62
     0
100
AcDb2dPolyline
 66
     1
 10
0.0
 20
0.0
 30
0.0
 39
0.008713
  0
VERTEX
  5
2DA
100
AcDbEntity
  8
0
 62
     0
100
AcDbVertex
100
AcDb2dVertex
 10
-1.617638
 20
0.182992
 30
0.0
 40
0.008713
 41
0.008713
  0
VERTEX
  5
2DB
100
AcDbEntity
  8
0
 62
     0
100
AcDbVertex
100
AcDb2dVertex
 10
-1.617638
 20
0.182992
 30
0.0
 40
0.008713
 41
0.008713
  0
SEQEND
  5
2DC
100
AcDbEntity
  8
0
 62
     0
  0
POLYLINE
  5
C0
100
AcDbEntity
  8
0
 62
     0
100
AcDb2dPolyline
 66
     1
 10
0.0
 20
0.0
 30
0.0
 39
0.008713
  0
VERTEX
  5
2DD
100
AcDbEntity
  8
0
 62
     0
100
AcDbVertex
100
AcDb2dVertex
 10
-2.217012
 20
-0.948803
 30
0.0
 40
0.008713
 41
0.008713
  0
VERTEX
  5
2DE
100
AcDbEntity
  8
0
 62
     0
100
AcDbVertex
100
AcDb2dVertex
 10
-2.18513
 20
-0.974311
 30
0.0
 40
0.008713
 41
0.008713
  0
SEQEND
  5
2DF
100
AcDbEntity
  8
0
 62
     0
  0
POLYLINE
  5
C1
100
AcDbEntity
  8
0
 62
     0
100
AcDb2dPolyline
 66
     1
 10
0.0
 20
0.0
 30
0.0
 39
0.008713
  0
VERTEX
  5
2E0
100
AcDbEntity
  8
0
 62
     0
100
AcDbVertex
100
AcDb2dVertex
 10
-2.18513
 20
-0.974311
 30
0.0
 40
0.008713
 41
0.008713
  0
VERTEX
  5
2E1
100
AcDbEntity
  8
0
 62
     0
100
AcDbVertex
100
AcDb2dVertex
 10
-2.132524
 20
-0.974311
 30
0.0
 40
0.008713
 41
0.008713
  0
SEQEND
  5
2E2
100
AcDbEntity
  8
0
 62
     0
  0
POLYLINE
  5
C2
100
AcDbEntity
  8
0
 62
     0
100
AcDb2dPolyline
 66
     1
 10
0.0
 20
0.0
 30
0.0
 39
0.008713
  0
VERTEX
  5
2E3
100
AcDbEntity
  8
0
 62
     0
100
AcDbVertex
100
AcDb2dVertex
 10
-2.132524
 20
-0.974311
 30
0.0
 40
0.008713
 41
0.008713
  0
VERTEX
  5
2E4
100
AcDbEntity
  8
0
 62
     0
100
AcDbVertex
100
AcDb2dVertex
 10
-2.105425
 20
-0.948803
 30
0.0
 40
0.008713
 41
0.008713
  0
SEQEND
  5
2E5
100
AcDbEntity
  8
0
 62
     0
  0
POLYLINE
  5
C3
100
AcDbEntity
  8
0
 62
     0
100
AcDb2dPolyline
 66
     1
 10
0.0
 20
0.0
 30
0.0
 39
0.008713
  0
VERTEX
  5
2E6
100
AcDbEntity
  8
0
 62
     0
100
AcDbVertex
100
AcDb2dVertex
 10
-2.105425
 20
-0.948803
 30
0.0
 40
0.008713
 41
0.008713
  0
VERTEX
  5
2E7
100
AcDbEntity
  8
0
 62
     0
100
AcDbVertex
100
AcDb2dVertex
 10
-2.217012
 20
-0.830843
 30
0.0
 40
0.008713
 41
0.008713
  0
SEQEND
  5
2E8
100
AcDbEntity
  8
0
 62
     0
  0
POLYLINE
  5
C4
100
AcDbEntity
  8
0
 62
     0
100
AcDb2dPolyline
 66
     1
 10
0.0
 20
0.0
 30
0.0
 39
0.008713
  0
VERTEX
  5
2E9
100
AcDbEntity
  8
0
 62
     0
100
AcDbVertex
100
AcDb2dVertex
 10
-2.217012
 20
-0.830843
 30
0.0
 40
0.008713
 41
0.008713
  0
VERTEX
  5
2EA
100
AcDbEntity
  8
0
 62
     0
100
AcDbVertex
100
AcDb2dVertex
 10
-2.18513
 20
-0.805339
 30
0.0
 40
0.008713
 41
0.008713
  0
SEQEND
  5
2EB
100
AcDbEntity
  8
0
 62
     0
  0
POLYLINE
  5
C5
100
AcDbEntity
  8
0
 62
     0
100
AcDb2dPolyline
 66
     1
 10
0.0
 20
0.0
 30
0.0
 39
0.008713
  0
VERTEX
  5
2EC
100
AcDbEntity
  8
0
 62
     0
100
AcDbVertex
100
AcDb2dVertex
 10
-2.18513
 20
-0.805339
 30
0.0
 40
0.008713
 41
0.008713
  0
VERTEX
  5
2ED
100
AcDbEntity
  8
0
 62
     0
100
AcDbVertex
100
AcDb2dVertex
 10
-2.132524
 20
-0.805339
 30
0.0
 40
0.008713
 41
0.008713
  0
SEQEND
  5
2EE
100
AcDbEntity
  8
0
 62
     0
  0
POLYLINE
  5
C6
100
AcDbEntity
  8
0
 62
     0
100
AcDb2dPolyline
 66
     1
 10
0.0
 20
0.0
 30
0.0
 39
0.008713
  0
VERTEX
  5
2EF
100
AcDbEntity
  8
0
 62
     0
100
AcDbVertex
100
AcDb2dVertex
 10
-2.132524
 20
-0.805339
 30
0.0
 40
0.008713
 41
0.008713
  0
VERTEX
  5
2F0
100
AcDbEntity
  8
0
 62
     0
100
AcDbVertex
100
AcDb2dVertex
 10
-2.105425
 20
-0.830843
 30
0.0
 40
0.008713
 41
0.008713
  0
SEQEND
  5
2F1
100
AcDbEntity
  8
0
 62
     0
  0
POLYLINE
  5
C7
100
AcDbEntity
  8
0
 62
     0
100
AcDb2dPolyline
 66
     1
 10
0.0
 20
0.0
 30
0.0
 39
0.008713
  0
VERTEX
  5
2F2
100
AcDbEntity
  8
0
 62
     0
100
AcDbVertex
100
AcDb2dVertex
 10
-1.936453
 20
-0.948803
 30
0.0
 40
0.008713
 41
0.008713
  0
VERTEX
  5
2F3
100
AcDbEntity
  8
0
 62
     0
100
AcDbVertex
100
AcDb2dVertex
 10
-1.961957
 20
-0.974311
 30
0.0
 40
0.008713
 41
0.008713
  0
SEQEND
  5
2F4
100
AcDbEntity
  8
0
 62
     0
  0
POLYLINE
  5
C8
100
AcDbEntity
  8
0
 62
     0
100
AcDb2dPolyline
 66
     1
 10
0.0
 20
0.0
 30
0.0
 39
0.008713
  0
VERTEX
  5
2F5
100
AcDbEntity
  8
0
 62
     0
100
AcDbVertex
100
AcDb2dVertex
 10
-1.961957
 20
-0.974311
 30
0.0
 40
0.008713
 41
0.008713
  0
VERTEX
  5
2F6
100
AcDbEntity
  8
0
 62
     0
100
AcDbVertex
100
AcDb2dVertex
 10
-2.020941
 20
-0.974311
 30
0.0
 40
0.008713
 41
0.008713
  0
SEQEND
  5
2F7
100
AcDbEntity
  8
0
 62
     0
  0
POLYLINE
  5
C9
100
AcDbEntity
  8
0
 62
     0
100
AcDb2dPolyline
 66
     1
 10
0.0
 20
0.0
 30
0.0
 39
0.008713
  0
VERTEX
  5
2F8
100
AcDbEntity
  8
0
 62
     0
100
AcDbVertex
100
AcDb2dVertex
 10
-2.020941
 20
-0.974311
 30
0.0
 40
0.008713
 41
0.008713
  0
VERTEX
  5
2F9
100
AcDbEntity
  8
0
 62
     0
100
AcDbVertex
100
AcDb2dVertex
 10
-2.048039
 20
-0.948803
 30
0.0
 40
0.008713
 41
0.008713
  0
SEQEND
  5
2FA
100
AcDbEntity
  8
0
 62
     0
  0
POLYLINE
  5
CA
100
AcDbEntity
  8
0
 62
     0
100
AcDb2dPolyline
 66
     1
 10
0.0
 20
0.0
 30
0.0
 39
0.008713
  0
VERTEX
  5
2FB
100
AcDbEntity
  8
0
 62
     0
100
AcDbVertex
100
AcDb2dVertex
 10
-2.048039
 20
-0.948803
 30
0.0
 40
0.008713
 41
0.008713
  0
VERTEX
  5
2FC
100
AcDbEntity
  8
0
 62
     0
100
AcDbVertex
100
AcDb2dVertex
 10
-2.048039
 20
-0.830843
 30
0.0
 40
0.008713
 41
0.008713
  0
SEQEND
  5
2FD
100
AcDbEntity
  8
0
 62
     0
  0
POLYLINE
  5
CB
100
AcDbEntity
  8
0
 62
     0
100
AcDb2dPolyline
 66
     1
 10
0.0
 20
0.0
 30
0.0
 39
0.008713
  0
VERTEX
  5
2FE
100
AcDbEntity
  8
0
 62
     0
100
AcDbVertex
100
AcDb2dVertex
 10
-2.048039
 20
-0.830843
 30
0.0
 40
0.008713
 41
0.008713
  0
VERTEX
  5
2FF
100
AcDbEntity
  8
0
 62
     0
100
AcDbVertex
100
AcDb2dVertex
 10
-2.020941
 20
-0.805339
 30
0.0
 40
0.008713
 41
0.008713
  0
SEQEND
  5
300
100
AcDbEntity
  8
0
 62
     0
  0
POLYLINE
  5
CC
100
AcDbEntity
  8
0
 62
     0
100
AcDb2dPolyline
 66
     1
 10
0.0
 20
0.0
 30
0.0
 39
0.008713
  0
VERTEX
  5
301
100
AcDbEntity
  8
0
 62
     0
100
AcDbVertex
100
AcDb2dVertex
 10
-2.020941
 20
-0.805339
 30
0.0
 40
0.008713
 41
0.008713
  0
VERTEX
  5
302
100
AcDbEntity
  8
0
 62
     0
100
AcDbVertex
100
AcDb2dVertex
 10
-1.961957
 20
-0.805339
 30
0.0
 40
0.008713
 41
0.008713
  0
SEQEND
  5
303
100
AcDbEntity
  8
0
 62
     0
  0
POLYLINE
  5
CD
100
AcDbEntity
  8
0
 62
     0
100
AcDb2dPolyline
 66
     1
 10
0.0
 20
0.0
 30
0.0
 39
0.008713
  0
VERTEX
  5
304
100
AcDbEntity
  8
0
 62
     0
100
AcDbVertex
100
AcDb2dVertex
 10
-1.961957
 20
-0.805339
 30
0.0
 40
0.008713
 41
0.008713
  0
VERTEX
  5
305
100
AcDbEntity
  8
0
 62
     0
100
AcDbVertex
100
AcDb2dVertex
 10
-1.936453
 20
-0.830843
 30
0.0
 40
0.008713
 41
0.008713
  0
SEQEND
  5
306
100
AcDbEntity
  8
0
 62
     0
  0
POLYLINE
  5
CE
100
AcDbEntity
  8
0
 62
     0
100
AcDb2dPolyline
 66
     1
 10
0.0
 20
0.0
 30
0.0
 39
0.008713
  0
VERTEX
  5
307
100
AcDbEntity
  8
0
 62
     0
100
AcDbVertex
100
AcDb2dVertex
 10
-1.877472
 20
-0.974311
 30
0.0
 40
0.008713
 41
0.008713
  0
VERTEX
  5
308
100
AcDbEntity
  8
0
 62
     0
100
AcDbVertex
100
AcDb2dVertex
 10
-1.877472
 20
-0.916921
 30
0.0
 40
0.008713
 41
0.008713
  0
SEQEND
  5
309
100
AcDbEntity
  8
0
 62
     0
  0
POLYLINE
  5
CF
100
AcDbEntity
  8
0
 62
     0
100
AcDb2dPolyline
 66
     1
 10
0.0
 20
0.0
 30
0.0
 39
0.008713
  0
VERTEX
  5
30A
100
AcDbEntity
  8
0
 62
     0
100
AcDbVertex
100
AcDb2dVertex
 10
-1.877472
 20
-0.916921
 30
0.0
 40
0.008713
 41
0.008713
  0
VERTEX
  5
30B
100
AcDbEntity
  8
0
 62
     0
100
AcDbVertex
100
AcDb2dVertex
 10
-1.824866
 20
-0.805339
 30
0.0
 40
0.008713
 41
0.008713
  0
SEQEND
  5
30C
100
AcDbEntity
  8
0
 62
     0
  0
POLYLINE
  5
D0
100
AcDbEntity
  8
0
 62
     0
100
AcDb2dPolyline
 66
     1
 10
0.0
 20
0.0
 30
0.0
 39
0.008713
  0
VERTEX
  5
30D
100
AcDbEntity
  8
0
 62
     0
100
AcDbVertex
100
AcDb2dVertex
 10
-1.824866
 20
-0.805339
 30
0.0
 40
0.008713
 41
0.008713
  0
VERTEX
  5
30E
100
AcDbEntity
  8
0
 62
     0
100
AcDbVertex
100
AcDb2dVertex
 10
-1.765886
 20
-0.916921
 30
0.0
 40
0.008713
 41
0.008713
  0
SEQEND
  5
30F
100
AcDbEntity
  8
0
 62
     0
  0
POLYLINE
  5
D1
100
AcDbEntity
  8
0
 62
     0
100
AcDb2dPolyline
 66
     1
 10
0.0
 20
0.0
 30
0.0
 39
0.008713
  0
VERTEX
  5
310
100
AcDbEntity
  8
0
 62
     0
100
AcDbVertex
100
AcDb2dVertex
 10
-1.765886
 20
-0.916921
 30
0.0
 40
0.008713
 41
0.008713
  0
VERTEX
  5
311
100
AcDbEntity
  8
0
 62
     0
100
AcDbVertex
100
AcDb2dVertex
 10
-1.765886
 20
-0.974311
 30
0.0
 40
0.008713
 41
0.008713
  0
SEQEND
  5
312
100
AcDbEntity
  8
0
 62
     0
  0
POLYLINE
  5
D2
100
AcDbEntity
  8
0
 62
     0
100
AcDb2dPolyline
 66
     1
 10
0.0
 20
0.0
 30
0.0
 39
0.008713
  0
VERTEX
  5
313
100
AcDbEntity
  8
0
 62
     0
100
AcDbVertex
100
AcDb2dVertex
 10
-1.877472
 20
-0.916921
 30
0.0
 40
0.008713
 41
0.008713
  0
VERTEX
  5
314
100
AcDbEntity
  8
0
 62
     0
100
AcDbVertex
100
AcDb2dVertex
 10
-1.765886
 20
-0.916921
 30
0.0
 40
0.008713
 41
0.008713
  0
SEQEND
  5
315
100
AcDbEntity
  8
0
 62
     0
  0
POLYLINE
  5
D3
100
AcDbEntity
  8
0
 62
     0
100
AcDb2dPolyline
 66
     1
 10
0.0
 20
0.0
 30
0.0
 39
0.008713
  0
VERTEX
  5
316
100
AcDbEntity
  8
0
 62
     0
100
AcDbVertex
100
AcDb2dVertex
 10
-1.706906
 20
-0.805339
 30
0.0
 40
0.008713
 41
0.008713
  0
VERTEX
  5
317
100
AcDbEntity
  8
0
 62
     0
100
AcDbVertex
100
AcDb2dVertex
 10
-1.706906
 20
-0.974311
 30
0.0
 40
0.008713
 41
0.008713
  0
SEQEND
  5
318
100
AcDbEntity
  8
0
 62
     0
  0
POLYLINE
  5
D4
100
AcDbEntity
  8
0
 62
     0
100
AcDb2dPolyline
 66
     1
 10
0.0
 20
0.0
 30
0.0
 39
0.008713
  0
VERTEX
  5
319
100
AcDbEntity
  8
0
 62
     0
100
AcDbVertex
100
AcDb2dVertex
 10
-1.706906
 20
-0.974311
 30
0.0
 40
0.008713
 41
0.008713
  0
VERTEX
  5
31A
100
AcDbEntity
  8
0
 62
     0
100
AcDbVertex
100
AcDb2dVertex
 10
-1.595319
 20
-0.974311
 30
0.0
 40
0.008713
 41
0.008713
  0
SEQEND
  5
31B
100
AcDbEntity
  8
0
 62
     0
  0
POLYLINE
  5
D5
100
AcDbEntity
  8
0
 62
     0
100
AcDb2dPolyline
 66
     1
 10
0.0
 20
0.0
 30
0.0
 39
0.008713
  0
VERTEX
  5
31C
100
AcDbEntity
  8
0
 62
     0
100
AcDbVertex
100
AcDb2dVertex
 10
-1.542717
 20
-0.974311
 30
0.0
 40
0.008713
 41
0.008713
  0
VERTEX
  5
31D
100
AcDbEntity
  8
0
 62
     0
100
AcDbVertex
100
AcDb2dVertex
 10
-1.542717
 20
-0.805339
 30
0.0
 40
0.008713
 41
0.008713
  0
SEQEND
  5
31E
100
AcDbEntity
  8
0
 62
     0
  0
POLYLINE
  5
D6
100
AcDbEntity
  8
0
 62
     0
100
AcDb2dPolyline
 66
     1
 10
0.0
 20
0.0
 30
0.0
 39
0.008713
  0
VERTEX
  5
31F
100
AcDbEntity
  8
0
 62
     0
100
AcDbVertex
100
AcDb2dVertex
 10
-1.542717
 20
-0.805339
 30
0.0
 40
0.008713
 41
0.008713
  0
VERTEX
  5
320
100
AcDbEntity
  8
0
 62
     0
100
AcDbVertex
100
AcDb2dVertex
 10
-1.426346
 20
-0.805339
 30
0.0
 40
0.008713
 41
0.008713
  0
SEQEND
  5
321
100
AcDbEntity
  8
0
 62
     0
  0
POLYLINE
  5
D7
100
AcDbEntity
  8
0
 62
     0
100
AcDb2dPolyline
 66
     1
 10
0.0
 20
0.0
 30
0.0
 39
0.008713
  0
VERTEX
  5
322
100
AcDbEntity
  8
0
 62
     0
100
AcDbVertex
100
AcDb2dVertex
 10
-1.542717
 20
-0.889823
 30
0.0
 40
0.008713
 41
0.008713
  0
VERTEX
  5
323
100
AcDbEntity
  8
0
 62
     0
100
AcDbVertex
100
AcDb2dVertex
 10
-1.483736
 20
-0.889823
 30
0.0
 40
0.008713
 41
0.008713
  0
SEQEND
  5
324
100
AcDbEntity
  8
0
 62
     0
  0
POLYLINE
  5
D8
100
AcDbEntity
  8
0
 62
     0
100
AcDb2dPolyline
 66
     1
 10
0.0
 20
0.0
 30
0.0
 39
0.008713
  0
VERTEX
  5
325
100
AcDbEntity
  8
0
 62
     0
100
AcDbVertex
100
AcDb2dVertex
 10
-1.542717
 20
-0.974311
 30
0.0
 40
0.008713
 41
0.008713
  0
VERTEX
  5
326
100
AcDbEntity
  8
0
 62
     0
100
AcDbVertex
100
AcDb2dVertex
 10
-1.426346
 20
-0.974311
 30
0.0
 40
0.008713
 41
0.008713
  0
SEQEND
  5
327
100
AcDbEntity
  8
0
 62
     0
  0
POLYLINE
  5
D9
100
AcDbEntity
  8
0
 62
     0
100
AcDb2dPolyline
 66
     1
 10
0.0
 20
0.0
 30
0.0
 39
0.008713
  0
VERTEX
  5
328
100
AcDbEntity
  8
0
 62
     0
100
AcDbVertex
100
AcDb2dVertex
 10
-1.203177
 20
-0.862724
 30
0.0
 40
0.008713
 41
0.008713
  0
VERTEX
  5
329
100
AcDbEntity
  8
0
 62
     0
100
AcDbVertex
100
AcDb2dVertex
 10
-1.203177
 20
-0.889823
 30
0.0
 40
0.008713
 41
0.008713
  0
SEQEND
  5
32A
100
AcDbEntity
  8
0
 62
     0
  0
POLYLINE
  5
DA
100
AcDbEntity
  8
0
 62
     0
100
AcDb2dPolyline
 66
     1
 10
0.0
 20
0.0
 30
0.0
 39
0.008713
  0
VERTEX
  5
32B
100
AcDbEntity
  8
0
 62
     0
100
AcDbVertex
100
AcDb2dVertex
 10
-1.203177
 20
-0.916921
 30
0.0
 40
0.008713
 41
0.008713
  0
VERTEX
  5
32C
100
AcDbEntity
  8
0
 62
     0
100
AcDbVertex
100
AcDb2dVertex
 10
-1.203177
 20
-0.948803
 30
0.0
 40
0.008713
 41
0.008713
  0
SEQEND
  5
32D
100
AcDbEntity
  8
0
 62
     0
  0
POLYLINE
  5
DB
100
AcDbEntity
  8
0
 62
     0
100
AcDb2dPolyline
 66
     1
 10
0.0
 20
0.0
 30
0.0
 39
0.008713
  0
VERTEX
  5
32E
100
AcDbEntity
  8
0
 62
     0
100
AcDbVertex
100
AcDb2dVertex
 10
-0.980008
 20
-0.830843
 30
0.0
 40
0.008713
 41
0.008713
  0
VERTEX
  5
32F
100
AcDbEntity
  8
0
 62
     0
100
AcDbVertex
100
AcDb2dVertex
 10
-0.948126
 20
-0.805339
 30
0.0
 40
0.008713
 41
0.008713
  0
SEQEND
  5
330
100
AcDbEntity
  8
0
 62
     0
  0
POLYLINE
  5
DC
100
AcDbEntity
  8
0
 62
     0
100
AcDb2dPolyline
 66
     1
 10
0.0
 20
0.0
 30
0.0
 39
0.008713
  0
VERTEX
  5
331
100
AcDbEntity
  8
0
 62
     0
100
AcDbVertex
100
AcDb2dVertex
 10
-0.948126
 20
-0.805339
 30
0.0
 40
0.008713
 41
0.008713
  0
VERTEX
  5
332
100
AcDbEntity
  8
0
 62
     0
100
AcDbVertex
100
AcDb2dVertex
 10
-0.948126
 20
-0.974311
 30
0.0
 40
0.008713
 41
0.008713
  0
SEQEND
  5
333
100
AcDbEntity
  8
0
 62
     0
  0
POLYLINE
  5
DD
100
AcDbEntity
  8
0
 62
     0
100
AcDb2dPolyline
 66
     1
 10
0.0
 20
0.0
 30
0.0
 39
0.008713
  0
VERTEX
  5
334
100
AcDbEntity
  8
0
 62
     0
100
AcDbVertex
100
AcDb2dVertex
 10
-0.980008
 20
-0.974311
 30
0.0
 40
0.008713
 41
0.008713
  0
VERTEX
  5
335
100
AcDbEntity
  8
0
 62
     0
100
AcDbVertex
100
AcDb2dVertex
 10
-0.921024
 20
-0.974311
 30
0.0
 40
0.008713
 41
0.008713
  0
SEQEND
  5
336
100
AcDbEntity
  8
0
 62
     0
  0
POLYLINE
  5
DE
100
AcDbEntity
  8
0
 62
     0
100
AcDb2dPolyline
 66
     1
 10
0.0
 20
0.0
 30
0.0
 39
0.008713
  0
VERTEX
  5
337
100
AcDbEntity
  8
0
 62
     0
100
AcDbVertex
100
AcDb2dVertex
 10
-0.862043
 20
-0.862724
 30
0.0
 40
0.008713
 41
0.008713
  0
VERTEX
  5
338
100
AcDbEntity
  8
0
 62
     0
100
AcDbVertex
100
AcDb2dVertex
 10
-0.836539
 20
-0.805339
 30
0.0
 40
0.008713
 41
0.008713
  0
SEQEND
  5
339
100
AcDbEntity
  8
0
 62
     0
  0
POLYLINE
  5
DF
100
AcDbEntity
  8
0
 62
     0
100
AcDb2dPolyline
 66
     1
 10
0.0
 20
0.0
 30
0.0
 39
0.008713
  0
VERTEX
  5
33A
100
AcDbEntity
  8
0
 62
     0
100
AcDbVertex
100
AcDb2dVertex
 10
-0.809441
 20
-0.805339
 30
0.0
 40
0.008713
 41
0.008713
  0
VERTEX
  5
33B
100
AcDbEntity
  8
0
 62
     0
100
AcDbVertex
100
AcDb2dVertex
 10
-0.836539
 20
-0.862724
 30
0.0
 40
0.008713
 41
0.008713
  0
SEQEND
  5
33C
100
AcDbEntity
  8
0
 62
     0
  0
POLYLINE
  5
E0
100
AcDbEntity
  8
0
 62
     0
100
AcDb2dPolyline
 66
     1
 10
0.0
 20
0.0
 30
0.0
 39
0.008713
  0
VERTEX
  5
33D
100
AcDbEntity
  8
0
 62
     0
100
AcDbVertex
100
AcDb2dVertex
 10
-0.581488
 20
-0.862724
 30
0.0
 40
0.008713
 41
0.008713
  0
VERTEX
  5
33E
100
AcDbEntity
  8
0
 62
     0
100
AcDbVertex
100
AcDb2dVertex
 10
-0.469902
 20
-0.862724
 30
0.0
 40
0.008713
 41
0.008713
  0
SEQEND
  5
33F
100
AcDbEntity
  8
0
 62
     0
  0
POLYLINE
  5
E1
100
AcDbEntity
  8
0
 62
     0
100
AcDb2dPolyline
 66
     1
 10
0.0
 20
0.0
 30
0.0
 39
0.008713
  0
VERTEX
  5
340
100
AcDbEntity
  8
0
 62
     0
100
AcDbVertex
100
AcDb2dVertex
 10
-0.469902
 20
-0.916921
 30
0.0
 40
0.008713
 41
0.008713
  0
VERTEX
  5
341
100
AcDbEntity
  8
0
 62
     0
100
AcDbVertex
100
AcDb2dVertex
 10
-0.581488
 20
-0.916921
 30
0.0
 40
0.008713
 41
0.008713
  0
SEQEND
  5
342
100
AcDbEntity
  8
0
 62
     0
  0
POLYLINE
  5
E2
100
AcDbEntity
  8
0
 62
     0
100
AcDb2dPolyline
 66
     1
 10
0.0
 20
0.0
 30
0.0
 39
0.008713
  0
VERTEX
  5
343
100
AcDbEntity
  8
0
 62
     0
100
AcDbVertex
100
AcDb2dVertex
 10
-0.246732
 20
-0.830843
 30
0.0
 40
0.008713
 41
0.008713
  0
VERTEX
  5
344
100
AcDbEntity
  8
0
 62
     0
100
AcDbVertex
100
AcDb2dVertex
 10
-0.21963
 20
-0.805339
 30
0.0
 40
0.008713
 41
0.008713
  0
SEQEND
  5
345
100
AcDbEntity
  8
0
 62
     0
  0
POLYLINE
  5
E3
100
AcDbEntity
  8
0
 62
     0
100
AcDb2dPolyline
 66
     1
 10
0.0
 20
0.0
 30
0.0
 39
0.008713
  0
VERTEX
  5
346
100
AcDbEntity
  8
0
 62
     0
100
AcDbVertex
100
AcDb2dVertex
 10
-0.21963
 20
-0.805339
 30
0.0
 40
0.008713
 41
0.008713
  0
VERTEX
  5
347
100
AcDbEntity
  8
0
 62
     0
100
AcDbVertex
100
AcDb2dVertex
 10
-0.21963
 20
-0.974311
 30
0.0
 40
0.008713
 41
0.008713
  0
SEQEND
  5
348
100
AcDbEntity
  8
0
 62
     0
  0
POLYLINE
  5
E4
100
AcDbEntity
  8
0
 62
     0
100
AcDb2dPolyline
 66
     1
 10
0.0
 20
0.0
 30
0.0
 39
0.008713
  0
VERTEX
  5
349
100
AcDbEntity
  8
0
 62
     0
100
AcDbVertex
100
AcDb2dVertex
 10
-0.246732
 20
-0.974311
 30
0.0
 40
0.008713
 41
0.008713
  0
VERTEX
  5
34A
100
AcDbEntity
  8
0
 62
     0
100
AcDbVertex
100
AcDb2dVertex
 10
-0.187748
 20
-0.974311
 30
0.0
 40
0.008713
 41
0.008713
  0
SEQEND
  5
34B
100
AcDbEntity
  8
0
 62
     0
  0
POLYLINE
  5
E5
100
AcDbEntity
  8
0
 62
     0
100
AcDb2dPolyline
 66
     1
 10
0.0
 20
0.0
 30
0.0
 39
0.008713
  0
VERTEX
  5
34C
100
AcDbEntity
  8
0
 62
     0
100
AcDbVertex
100
AcDb2dVertex
 10
-0.135146
 20
-0.862724
 30
0.0
 40
0.008713
 41
0.008713
  0
VERTEX
  5
34D
100
AcDbEntity
  8
0
 62
     0
100
AcDbVertex
100
AcDb2dVertex
 10
-0.103264
 20
-0.805339
 30
0.0
 40
0.008713
 41
0.008713
  0
SEQEND
  5
34E
100
AcDbEntity
  8
0
 62
     0
  0
POLYLINE
  5
E6
100
AcDbEntity
  8
0
 62
     0
100
AcDb2dPolyline
 66
     1
 10
0.0
 20
0.0
 30
0.0
 39
0.008713
  0
VERTEX
  5
34F
100
AcDbEntity
  8
0
 62
     0
100
AcDbVertex
100
AcDb2dVertex
 10
-0.076165
 20
-0.805339
 30
0.0
 40
0.008713
 41
0.008713
  0
VERTEX
  5
350
100
AcDbEntity
  8
0
 62
     0
100
AcDbVertex
100
AcDb2dVertex
 10
-0.103264
 20
-0.862724
 30
0.0
 40
0.008713
 41
0.008713
  0
SEQEND
  5
351
100
AcDbEntity
  8
0
 62
     0
  0
POLYLINE
  5
E7
100
AcDbEntity
  8
0
 62
     0
100
AcDb2dPolyline
 66
     1
 10
0.0
 20
0.0
 30
0.0
 39
0.008713
  0
VERTEX
  5
352
100
AcDbEntity
  8
0
 62
     0
100
AcDbVertex
100
AcDb2dVertex
 10
-2.217012
 20
-0.470583
 30
0.0
 40
0.008713
 41
0.008713
  0
VERTEX
  5
353
100
AcDbEntity
  8
0
 62
     0
100
AcDbVertex
100
AcDb2dVertex
 10
-2.217012
 20
-0.215528
 30
0.0
 40
0.008713
 41
0.008713
  0
SEQEND
  5
354
100
AcDbEntity
  8
0
 62
     0
  0
POLYLINE
  5
E8
100
AcDbEntity
  8
0
 62
     0
100
AcDb2dPolyline
 66
     1
 10
0.0
 20
0.0
 30
0.0
 39
0.008713
  0
VERTEX
  5
355
100
AcDbEntity
  8
0
 62
     0
100
AcDbVertex
100
AcDb2dVertex
 10
-2.217012
 20
-0.215528
 30
0.0
 40
0.008713
 41
0.008713
  0
VERTEX
  5
356
100
AcDbEntity
  8
0
 62
     0
100
AcDbVertex
100
AcDb2dVertex
 10
-2.089484
 20
-0.215528
 30
0.0
 40
0.008713
 41
0.008713
  0
SEQEND
  5
357
100
AcDbEntity
  8
0
 62
     0
  0
POLYLINE
  5
E9
100
AcDbEntity
  8
0
 62
     0
100
AcDb2dPolyline
 66
     1
 10
0.0
 20
0.0
 30
0.0
 39
0.008713
  0
VERTEX
  5
358
100
AcDbEntity
  8
0
 62
     0
100
AcDbVertex
100
AcDb2dVertex
 10
-2.089484
 20
-0.215528
 30
0.0
 40
0.008713
 41
0.008713
  0
VERTEX
  5
359
100
AcDbEntity
  8
0
 62
     0
100
AcDbVertex
100
AcDb2dVertex
 10
-2.048039
 20
-0.256976
 30
0.0
 40
0.008713
 41
0.008713
  0
SEQEND
  5
35A
100
AcDbEntity
  8
0
 62
     0
  0
POLYLINE
  5
EA
100
AcDbEntity
  8
0
 62
     0
100
AcDb2dPolyline
 66
     1
 10
0.0
 20
0.0
 30
0.0
 39
0.008713
  0
VERTEX
  5
35B
100
AcDbEntity
  8
0
 62
     0
100
AcDbVertex
100
AcDb2dVertex
 10
-2.048039
 20
-0.256976
 30
0.0
 40
0.008713
 41
0.008713
  0
VERTEX
  5
35C
100
AcDbEntity
  8
0
 62
     0
100
AcDbVertex
100
AcDb2dVertex
 10
-2.048039
 20
-0.300016
 30
0.0
 40
0.008713
 41
0.008713
  0
SEQEND
  5
35D
100
AcDbEntity
  8
0
 62
     0
  0
POLYLINE
  5
EB
100
AcDbEntity
  8
0
 62
     0
100
AcDb2dPolyline
 66
     1
 10
0.0
 20
0.0
 30
0.0
 39
0.008713
  0
VERTEX
  5
35E
100
AcDbEntity
  8
0
 62
     0
100
AcDbVertex
100
AcDb2dVertex
 10
-2.048039
 20
-0.300016
 30
0.0
 40
0.008713
 41
0.008713
  0
VERTEX
  5
35F
100
AcDbEntity
  8
0
 62
     0
100
AcDbVertex
100
AcDb2dVertex
 10
-2.089484
 20
-0.343055
 30
0.0
 40
0.008713
 41
0.008713
  0
SEQEND
  5
360
100
AcDbEntity
  8
0
 62
     0
  0
POLYLINE
  5
EC
100
AcDbEntity
  8
0
 62
     0
100
AcDb2dPolyline
 66
     1
 10
0.0
 20
0.0
 30
0.0
 39
0.008713
  0
VERTEX
  5
361
100
AcDbEntity
  8
0
 62
     0
100
AcDbVertex
100
AcDb2dVertex
 10
-2.089484
 20
-0.343055
 30
0.0
 40
0.008713
 41
0.008713
  0
VERTEX
  5
362
100
AcDbEntity
  8
0
 62
     0
100
AcDbVertex
100
AcDb2dVertex
 10
-2.217012
 20
-0.343055
 30
0.0
 40
0.008713
 41
0.008713
  0
SEQEND
  5
363
100
AcDbEntity
  8
0
 62
     0
  0
POLYLINE
  5
ED
100
AcDbEntity
  8
0
 62
     0
100
AcDb2dPolyline
 66
     1
 10
0.0
 20
0.0
 30
0.0
 39
0.008713
  0
VERTEX
  5
364
100
AcDbEntity
  8
0
 62
     0
100
AcDbVertex
100
AcDb2dVertex
 10
-1.961957
 20
-0.470583
 30
0.0
 40
0.008713
 41
0.008713
  0
VERTEX
  5
365
100
AcDbEntity
  8
0
 62
     0
100
AcDbVertex
100
AcDb2dVertex
 10
-1.961957
 20
-0.3845
 30
0.0
 40
0.008713
 41
0.008713
  0
SEQEND
  5
366
100
AcDbEntity
  8
0
 62
     0
  0
POLYLINE
  5
EE
100
AcDbEntity
  8
0
 62
     0
100
AcDb2dPolyline
 66
     1
 10
0.0
 20
0.0
 30
0.0
 39
0.008713
  0
VERTEX
  5
367
100
AcDbEntity
  8
0
 62
     0
100
AcDbVertex
100
AcDb2dVertex
 10
-1.961957
 20
-0.3845
 30
0.0
 40
0.008713
 41
0.008713
  0
VERTEX
  5
368
100
AcDbEntity
  8
0
 62
     0
100
AcDbVertex
100
AcDb2dVertex
 10
-1.877472
 20
-0.215528
 30
0.0
 40
0.008713
 41
0.008713
  0
SEQEND
  5
369
100
AcDbEntity
  8
0
 62
     0
  0
POLYLINE
  5
EF
100
AcDbEntity
  8
0
 62
     0
100
AcDb2dPolyline
 66
     1
 10
0.0
 20
0.0
 30
0.0
 39
0.008713
  0
VERTEX
  5
36A
100
AcDbEntity
  8
0
 62
     0
100
AcDbVertex
100
AcDb2dVertex
 10
-1.877472
 20
-0.215528
 30
0.0
 40
0.008713
 41
0.008713
  0
VERTEX
  5
36B
100
AcDbEntity
  8
0
 62
     0
100
AcDbVertex
100
AcDb2dVertex
 10
-1.792988
 20
-0.3845
 30
0.0
 40
0.008713
 41
0.008713
  0
SEQEND
  5
36C
100
AcDbEntity
  8
0
 62
     0
  0
POLYLINE
  5
F0
100
AcDbEntity
  8
0
 62
     0
100
AcDb2dPolyline
 66
     1
 10
0.0
 20
0.0
 30
0.0
 39
0.008713
  0
VERTEX
  5
36D
100
AcDbEntity
  8
0
 62
     0
100
AcDbVertex
100
AcDb2dVertex
 10
-1.792988
 20
-0.3845
 30
0.0
 40
0.008713
 41
0.008713
  0
VERTEX
  5
36E
100
AcDbEntity
  8
0
 62
     0
100
AcDbVertex
100
AcDb2dVertex
 10
-1.792988
 20
-0.470583
 30
0.0
 40
0.008713
 41
0.008713
  0
SEQEND
  5
36F
100
AcDbEntity
  8
0
 62
     0
  0
POLYLINE
  5
F1
100
AcDbEntity
  8
0
 62
     0
100
AcDb2dPolyline
 66
     1
 10
0.0
 20
0.0
 30
0.0
 39
0.008713
  0
VERTEX
  5
370
100
AcDbEntity
  8
0
 62
     0
100
AcDbVertex
100
AcDb2dVertex
 10
-1.961957
 20
-0.3845
 30
0.0
 40
0.008713
 41
0.008713
  0
VERTEX
  5
371
100
AcDbEntity
  8
0
 62
     0
100
AcDbVertex
100
AcDb2dVertex
 10
-1.792988
 20
-0.3845
 30
0.0
 40
0.008713
 41
0.008713
  0
SEQEND
  5
372
100
AcDbEntity
  8
0
 62
     0
  0
POLYLINE
  5
F2
100
AcDbEntity
  8
0
 62
     0
100
AcDb2dPolyline
 66
     1
 10
0.0
 20
0.0
 30
0.0
 39
0.008713
  0
VERTEX
  5
373
100
AcDbEntity
  8
0
 62
     0
100
AcDbVertex
100
AcDb2dVertex
 10
-1.706906
 20
-0.470583
 30
0.0
 40
0.008713
 41
0.008713
  0
VERTEX
  5
374
100
AcDbEntity
  8
0
 62
     0
100
AcDbVertex
100
AcDb2dVertex
 10
-1.706906
 20
-0.215528
 30
0.0
 40
0.008713
 41
0.008713
  0
SEQEND
  5
375
100
AcDbEntity
  8
0
 62
     0
  0
POLYLINE
  5
F3
100
AcDbEntity
  8
0
 62
     0
100
AcDb2dPolyline
 66
     1
 10
0.0
 20
0.0
 30
0.0
 39
0.008713
  0
VERTEX
  5
376
100
AcDbEntity
  8
0
 62
     0
100
AcDbVertex
100
AcDb2dVertex
 10
-1.706906
 20
-0.215528
 30
0.0
 40
0.008713
 41
0.008713
  0
VERTEX
  5
377
100
AcDbEntity
  8
0
 62
     0
100
AcDbVertex
100
AcDb2dVertex
 10
-1.585756
 20
-0.215528
 30
0.0
 40
0.008713
 41
0.008713
  0
SEQEND
  5
378
100
AcDbEntity
  8
0
 62
     0
  0
POLYLINE
  5
F4
100
AcDbEntity
  8
0
 62
     0
100
AcDb2dPolyline
 66
     1
 10
0.0
 20
0.0
 30
0.0
 39
0.008713
  0
VERTEX
  5
379
100
AcDbEntity
  8
0
 62
     0
100
AcDbVertex
100
AcDb2dVertex
 10
-1.585756
 20
-0.215528
 30
0.0
 40
0.008713
 41
0.008713
  0
VERTEX
  5
37A
100
AcDbEntity
  8
0
 62
     0
100
AcDbVertex
100
AcDb2dVertex
 10
-1.542717
 20
-0.256976
 30
0.0
 40
0.008713
 41
0.008713
  0
SEQEND
  5
37B
100
AcDbEntity
  8
0
 62
     0
  0
POLYLINE
  5
F5
100
AcDbEntity
  8
0
 62
     0
100
AcDb2dPolyline
 66
     1
 10
0.0
 20
0.0
 30
0.0
 39
0.008713
  0
VERTEX
  5
37C
100
AcDbEntity
  8
0
 62
     0
100
AcDbVertex
100
AcDb2dVertex
 10
-1.542717
 20
-0.256976
 30
0.0
 40
0.008713
 41
0.008713
  0
VERTEX
  5
37D
100
AcDbEntity
  8
0
 62
     0
100
AcDbVertex
100
AcDb2dVertex
 10
-1.542717
 20
-0.300016
 30
0.0
 40
0.008713
 41
0.008713
  0
SEQEND
  5
37E
100
AcDbEntity
  8
0
 62
     0
  0
POLYLINE
  5
F6
100
AcDbEntity
  8
0
 62
     0
100
AcDb2dPolyline
 66
     1
 10
0.0
 20
0.0
 30
0.0
 39
0.008713
  0
VERTEX
  5
37F
100
AcDbEntity
  8
0
 62
     0
100
AcDbVertex
100
AcDb2dVertex
 10
-1.542717
 20
-0.300016
 30
0.0
 40
0.008713
 41
0.008713
  0
VERTEX
  5
380
100
AcDbEntity
  8
0
 62
     0
100
AcDbVertex
100
AcDb2dVertex
 10
-1.585756
 20
-0.343055
 30
0.0
 40
0.008713
 41
0.008713
  0
SEQEND
  5
381
100
AcDbEntity
  8
0
 62
     0
  0
POLYLINE
  5
F7
100
AcDbEntity
  8
0
 62
     0
100
AcDb2dPolyline
 66
     1
 10
0.0
 20
0.0
 30
0.0
 39
0.008713
  0
VERTEX
  5
382
100
AcDbEntity
  8
0
 62
     0
100
AcDbVertex
100
AcDb2dVertex
 10
-1.585756
 20
-0.343055
 30
0.0
 40
0.008713
 41
0.008713
  0
VERTEX
  5
383
100
AcDbEntity
  8
0
 62
     0
100
AcDbVertex
100
AcDb2dVertex
 10
-1.706906
 20
-0.343055
 30
0.0
 40
0.008713
 41
0.008713
  0
SEQEND
  5
384
100
AcDbEntity
  8
0
 62
     0
  0
POLYLINE
  5
F8
100
AcDbEntity
  8
0
 62
     0
100
AcDb2dPolyline
 66
     1
 10
0.0
 20
0.0
 30
0.0
 39
0.008713
  0
VERTEX
  5
385
100
AcDbEntity
  8
0
 62
     0
100
AcDbVertex
100
AcDb2dVertex
 10
-1.665461
 20
-0.343055
 30
0.0
 40
0.008713
 41
0.008713
  0
VERTEX
  5
386
100
AcDbEntity
  8
0
 62
     0
100
AcDbVertex
100
AcDb2dVertex
 10
-1.542717
 20
-0.470583
 30
0.0
 40
0.008713
 41
0.008713
  0
SEQEND
  5
387
100
AcDbEntity
  8
0
 62
     0
  0
POLYLINE
  5
F9
100
AcDbEntity
  8
0
 62
     0
100
AcDb2dPolyline
 66
     1
 10
0.0
 20
0.0
 30
0.0
 39
0.008713
  0
VERTEX
  5
388
100
AcDbEntity
  8
0
 62
     0
100
AcDbVertex
100
AcDb2dVertex
 10
-1.458228
 20
-0.215528
 30
0.0
 40
0.008713
 41
0.008713
  0
VERTEX
  5
389
100
AcDbEntity
  8
0
 62
     0
100
AcDbVertex
100
AcDb2dVertex
 10
-1.287665
 20
-0.215528
 30
0.0
 40
0.008713
 41
0.008713
  0
SEQEND
  5
38A
100
AcDbEntity
  8
0
 62
     0
  0
POLYLINE
  5
FA
100
AcDbEntity
  8
0
 62
     0
100
AcDb2dPolyline
 66
     1
 10
0.0
 20
0.0
 30
0.0
 39
0.008713
  0
VERTEX
  5
38B
100
AcDbEntity
  8
0
 62
     0
100
AcDbVertex
100
AcDb2dVertex
 10
-1.37215
 20
-0.215528
 30
0.0
 40
0.008713
 41
0.008713
  0
VERTEX
  5
38C
100
AcDbEntity
  8
0
 62
     0
100
AcDbVertex
100
AcDb2dVertex
 10
-1.37215
 20
-0.470583
 30
0.0
 40
0.008713
 41
0.008713
  0
SEQEND
  5
38D
100
AcDbEntity
  8
0
 62
     0
  0
POLYLINE
  5
FB
100
AcDbEntity
  8
0
 62
     0
100
AcDb2dPolyline
 66
     1
 10
0.0
 20
0.0
 30
0.0
 39
0.008713
  0
VERTEX
  5
38E
100
AcDbEntity
  8
0
 62
     0
100
AcDbVertex
100
AcDb2dVertex
 10
-0.948126
 20
-0.343055
 30
0.0
 40
0.008713
 41
0.008713
  0
VERTEX
  5
38F
100
AcDbEntity
  8
0
 62
     0
100
AcDbVertex
100
AcDb2dVertex
 10
-0.782343
 20
-0.343055
 30
0.0
 40
0.008713
 41
0.008713
  0
SEQEND
  5
390
100
AcDbEntity
  8
0
 62
     0
  0
POLYLINE
  5
FC
100
AcDbEntity
  8
0
 62
     0
100
AcDb2dPolyline
 66
     1
 10
0.0
 20
0.0
 30
0.0
 39
0.008713
  0
VERTEX
  5
391
100
AcDbEntity
  8
0
 62
     0
100
AcDbVertex
100
AcDb2dVertex
 10
-0.442803
 20
-0.3845
 30
0.0
 40
0.008713
 41
0.008713
  0
VERTEX
  5
392
100
AcDbEntity
  8
0
 62
     0
100
AcDbVertex
100
AcDb2dVertex
 10
-0.272236
 20
-0.3845
 30
0.0
 40
0.008713
 41
0.008713
  0
SEQEND
  5
393
100
AcDbEntity
  8
0
 62
     0
  0
POLYLINE
  5
FD
100
AcDbEntity
  8
0
 62
     0
100
AcDb2dPolyline
 66
     1
 10
0.0
 20
0.0
 30
0.0
 39
0.008713
  0
VERTEX
  5
394
100
AcDbEntity
  8
0
 62
     0
100
AcDbVertex
100
AcDb2dVertex
 10
-0.272236
 20
-0.300016
 30
0.0
 40
0.008713
 41
0.008713
  0
VERTEX
  5
395
100
AcDbEntity
  8
0
 62
     0
100
AcDbVertex
100
AcDb2dVertex
 10
-0.442803
 20
-0.300016
 30
0.0
 40
0.008713
 41
0.008713
  0
SEQEND
  5
396
100
AcDbEntity
  8
0
 62
     0
  0
POLYLINE
  5
FE
100
AcDbEntity
  8
0
 62
     0
100
AcDb2dPolyline
 66
     1
 10
0.0
 20
0.0
 30
0.0
 39
0.008713
  0
VERTEX
  5
397
100
AcDbEntity
  8
0
 62
     0
100
AcDbVertex
100
AcDb2dVertex
 10
-0.399764
 20
-0.215528
 30
0.0
 40
0.008713
 41
0.008713
  0
VERTEX
  5
398
100
AcDbEntity
  8
0
 62
     0
100
AcDbVertex
100
AcDb2dVertex
 10
-0.399764
 20
-0.470583
 30
0.0
 40
0.008713
 41
0.008713
  0
SEQEND
  5
399
100
AcDbEntity
  8
0
 62
     0
  0
POLYLINE
  5
FF
100
AcDbEntity
  8
0
 62
     0
100
AcDb2dPolyline
 66
     1
 10
0.0
 20
0.0
 30
0.0
 39
0.008713
  0
VERTEX
  5
39A
100
AcDbEntity
  8
0
 62
     0
100
AcDbVertex
100
AcDb2dVertex
 10
-0.315276
 20
-0.470583
 30
0.0
 40
0.008713
 41
0.008713
  0
VERTEX
  5
39B
100
AcDbEntity
  8
0
 62
     0
100
AcDbVertex
100
AcDb2dVertex
 10
-0.315276
 20
-0.215528
 30
0.0
 40
0.008713
 41
0.008713
  0
SEQEND
  5
39C
100
AcDbEntity
  8
0
 62
     0
  0
POLYLINE
  5
100
100
AcDbEntity
  8
0
 62
     0
100
AcDb2dPolyline
 66
     1
 10
0.0
 20
0.0
 30
0.0
 39
0.008713
  0
VERTEX
  5
39D
100
AcDbEntity
  8
0
 62
     0
100
AcDbVertex
100
AcDb2dVertex
 10
0.06252
 20
-0.470583
 30
0.0
 40
0.008713
 41
0.008713
  0
VERTEX
  5
39E
100
AcDbEntity
  8
0
 62
     0
100
AcDbVertex
100
AcDb2dVertex
 10
0.06252
 20
-0.215528
 30
0.0
 40
0.008713
 41
0.008713
  0
SEQEND
  5
39F
100
AcDbEntity
  8
0
 62
     0
  0
POLYLINE
  5
101
100
AcDbEntity
  8
0
 62
     0
100
AcDb2dPolyline
 66
     1
 10
0.0
 20
0.0
 30
0.0
 39
0.008713
  0
VERTEX
  5
3A0
100
AcDbEntity
  8
0
 62
     0
100
AcDbVertex
100
AcDb2dVertex
 10
0.06252
 20
-0.215528
 30
0.0
 40
0.008713
 41
0.008713
  0
VERTEX
  5
3A1
100
AcDbEntity
  8
0
 62
     0
100
AcDbVertex
100
AcDb2dVertex
 10
0.231492
 20
-0.470583
 30
0.0
 40
0.008713
 41
0.008713
  0
SEQEND
  5
3A2
100
AcDbEntity
  8
0
 62
     0
  0
POLYLINE
  5
102
100
AcDbEntity
  8
0
 62
     0
100
AcDb2dPolyline
 66
     1
 10
0.0
 20
0.0
 30
0.0
 39
0.008713
  0
VERTEX
  5
3A3
100
AcDbEntity
  8
0
 62
     0
100
AcDbVertex
100
AcDb2dVertex
 10
0.231492
 20
-0.470583
 30
0.0
 40
0.008713
 41
0.008713
  0
VERTEX
  5
3A4
100
AcDbEntity
  8
0
 62
     0
100
AcDbVertex
100
AcDb2dVertex
 10
0.231492
 20
-0.215528
 30
0.0
 40
0.008713
 41
0.008713
  0
SEQEND
  5
3A5
100
AcDbEntity
  8
0
 62
     0
  0
POLYLINE
  5
103
100
AcDbEntity
  8
0
 62
     0
100
AcDb2dPolyline
 66
     1
 10
0.0
 20
0.0
 30
0.0
 39
0.008713
  0
VERTEX
  5
3A6
100
AcDbEntity
  8
0
 62
     0
100
AcDbVertex
100
AcDb2dVertex
 10
0.317575
 20
-0.256976
 30
0.0
 40
0.008713
 41
0.008713
  0
VERTEX
  5
3A7
100
AcDbEntity
  8
0
 62
     0
100
AcDbVertex
100
AcDb2dVertex
 10
0.35902
 20
-0.215528
 30
0.0
 40
0.008713
 41
0.008713
  0
SEQEND
  5
3A8
100
AcDbEntity
  8
0
 62
     0
  0
POLYLINE
  5
104
100
AcDbEntity
  8
0
 62
     0
100
AcDb2dPolyline
 66
     1
 10
0.0
 20
0.0
 30
0.0
 39
0.008713
  0
VERTEX
  5
3A9
100
AcDbEntity
  8
0
 62
     0
100
AcDbVertex
100
AcDb2dVertex
 10
0.35902
 20
-0.215528
 30
0.0
 40
0.008713
 41
0.008713
  0
VERTEX
  5
3AA
100
AcDbEntity
  8
0
 62
     0
100
AcDbVertex
100
AcDb2dVertex
 10
0.445098
 20
-0.215528
 30
0.0
 40
0.008713
 41
0.008713
  0
SEQEND
  5
3AB
100
AcDbEntity
  8
0
 62
     0
  0
POLYLINE
  5
105
100
AcDbEntity
  8
0
 62
     0
100
AcDb2dPolyline
 66
     1
 10
0.0
 20
0.0
 30
0.0
 39
0.008713
  0
VERTEX
  5
3AC
100
AcDbEntity
  8
0
 62
     0
100
AcDbVertex
100
AcDb2dVertex
 10
0.445098
 20
-0.215528
 30
0.0
 40
0.008713
 41
0.008713
  0
VERTEX
  5
3AD
100
AcDbEntity
  8
0
 62
     0
100
AcDbVertex
100
AcDb2dVertex
 10
0.486547
 20
-0.256976
 30
0.0
 40
0.008713
 41
0.008713
  0
SEQEND
  5
3AE
100
AcDbEntity
  8
0
 62
     0
  0
POLYLINE
  5
106
100
AcDbEntity
  8
0
 62
     0
100
AcDb2dPolyline
 66
     1
 10
0.0
 20
0.0
 30
0.0
 39
0.008713
  0
VERTEX
  5
3AF
100
AcDbEntity
  8
0
 62
     0
100
AcDbVertex
100
AcDb2dVertex
 10
0.486547
 20
-0.256976
 30
0.0
 40
0.008713
 41
0.008713
  0
VERTEX
  5
3B0
100
AcDbEntity
  8
0
 62
     0
100
AcDbVertex
100
AcDb2dVertex
 10
0.486547
 20
-0.300016
 30
0.0
 40
0.008713
 41
0.008713
  0
SEQEND
  5
3B1
100
AcDbEntity
  8
0
 62
     0
  0
POLYLINE
  5
107
100
AcDbEntity
  8
0
 62
     0
100
AcDb2dPolyline
 66
     1
 10
0.0
 20
0.0
 30
0.0
 39
0.008713
  0
VERTEX
  5
3B2
100
AcDbEntity
  8
0
 62
     0
100
AcDbVertex
100
AcDb2dVertex
 10
0.486547
 20
-0.300016
 30
0.0
 40
0.008713
 41
0.008713
  0
VERTEX
  5
3B3
100
AcDbEntity
  8
0
 62
     0
100
AcDbVertex
100
AcDb2dVertex
 10
0.445098
 20
-0.343055
 30
0.0
 40
0.008713
 41
0.008713
  0
SEQEND
  5
3B4
100
AcDbEntity
  8
0
 62
     0
  0
POLYLINE
  5
108
100
AcDbEntity
  8
0
 62
     0
100
AcDb2dPolyline
 66
     1
 10
0.0
 20
0.0
 30
0.0
 39
0.008713
  0
VERTEX
  5
3B5
100
AcDbEntity
  8
0
 62
     0
100
AcDbVertex
100
AcDb2dVertex
 10
0.445098
 20
-0.343055
 30
0.0
 40
0.008713
 41
0.008713
  0
VERTEX
  5
3B6
100
AcDbEntity
  8
0
 62
     0
100
AcDbVertex
100
AcDb2dVertex
 10
0.35902
 20
-0.343055
 30
0.0
 40
0.008713
 41
0.008713
  0
SEQEND
  5
3B7
100
AcDbEntity
  8
0
 62
     0
  0
POLYLINE
  5
109
100
AcDbEntity
  8
0
 62
     0
100
AcDb2dPolyline
 66
     1
 10
0.0
 20
0.0
 30
0.0
 39
0.008713
  0
VERTEX
  5
3B8
100
AcDbEntity
  8
0
 62
     0
100
AcDbVertex
100
AcDb2dVertex
 10
0.35902
 20
-0.343055
 30
0.0
 40
0.008713
 41
0.008713
  0
VERTEX
  5
3B9
100
AcDbEntity
  8
0
 62
     0
100
AcDbVertex
100
AcDb2dVertex
 10
0.317575
 20
-0.3845
 30
0.0
 40
0.008713
 41
0.008713
  0
SEQEND
  5
3BA
100
AcDbEntity
  8
0
 62
     0
  0
POLYLINE
  5
10A
100
AcDbEntity
  8
0
 62
     0
100
AcDb2dPolyline
 66
     1
 10
0.0
 20
0.0
 30
0.0
 39
0.008713
  0
VERTEX
  5
3BB
100
AcDbEntity
  8
0
 62
     0
100
AcDbVertex
100
AcDb2dVertex
 10
0.317575
 20
-0.3845
 30
0.0
 40
0.008713
 41
0.008713
  0
VERTEX
  5
3BC
100
AcDbEntity
  8
0
 62
     0
100
AcDbVertex
100
AcDb2dVertex
 10
0.317575
 20
-0.470583
 30
0.0
 40
0.008713
 41
0.008713
  0
SEQEND
  5
3BD
100
AcDbEntity
  8
0
 62
     0
  0
POLYLINE
  5
10B
100
AcDbEntity
  8
0
 62
     0
100
AcDb2dPolyline
 66
     1
 10
0.0
 20
0.0
 30
0.0
 39
0.008713
  0
VERTEX
  5
3BE
100
AcDbEntity
  8
0
 62
     0
100
AcDbVertex
100
AcDb2dVertex
 10
0.317575
 20
-0.470583
 30
0.0
 40
0.008713
 41
0.008713
  0
VERTEX
  5
3BF
100
AcDbEntity
  8
0
 62
     0
100
AcDbVertex
100
AcDb2dVertex
 10
0.486547
 20
-0.470583
 30
0.0
 40
0.008713
 41
0.008713
  0
SEQEND
  5
3C0
100
AcDbEntity
  8
0
 62
     0
  0
POLYLINE
  5
10C
100
AcDbEntity
  8
0
 62
     0
100
AcDb2dPolyline
 66
     1
 10
0.0
 20
0.0
 30
0.0
 39
0.008713
  0
VERTEX
  5
3C1
100
AcDbEntity
  8
0
 62
     0
100
AcDbVertex
100
AcDb2dVertex
 10
0.614071
 20
-0.470583
 30
0.0
 40
0.008713
 41
0.008713
  0
VERTEX
  5
3C2
100
AcDbEntity
  8
0
 62
     0
100
AcDbVertex
100
AcDb2dVertex
 10
0.572626
 20
-0.427539
 30
0.0
 40
0.008713
 41
0.008713
  0
SEQEND
  5
3C3
100
AcDbEntity
  8
0
 62
     0
  0
POLYLINE
  5
10D
100
AcDbEntity
  8
0
 62
     0
100
AcDb2dPolyline
 66
     1
 10
0.0
 20
0.0
 30
0.0
 39
0.008713
  0
VERTEX
  5
3C4
100
AcDbEntity
  8
0
 62
     0
100
AcDbVertex
100
AcDb2dVertex
 10
0.572626
 20
-0.427539
 30
0.0
 40
0.008713
 41
0.008713
  0
VERTEX
  5
3C5
100
AcDbEntity
  8
0
 62
     0
100
AcDbVertex
100
AcDb2dVertex
 10
0.572626
 20
-0.256976
 30
0.0
 40
0.008713
 41
0.008713
  0
SEQEND
  5
3C6
100
AcDbEntity
  8
0
 62
     0
  0
POLYLINE
  5
10E
100
AcDbEntity
  8
0
 62
     0
100
AcDb2dPolyline
 66
     1
 10
0.0
 20
0.0
 30
0.0
 39
0.008713
  0
VERTEX
  5
3C7
100
AcDbEntity
  8
0
 62
     0
100
AcDbVertex
100
AcDb2dVertex
 10
0.572626
 20
-0.256976
 30
0.0
 40
0.008713
 41
0.008713
  0
VERTEX
  5
3C8
100
AcDbEntity
  8
0
 62
     0
100
AcDbVertex
100
AcDb2dVertex
 10
0.614071
 20
-0.215528
 30
0.0
 40
0.008713
 41
0.008713
  0
SEQEND
  5
3C9
100
AcDbEntity
  8
0
 62
     0
  0
POLYLINE
  5
10F
100
AcDbEntity
  8
0
 62
     0
100
AcDb2dPolyline
 66
     1
 10
0.0
 20
0.0
 30
0.0
 39
0.008713
  0
VERTEX
  5
3CA
100
AcDbEntity
  8
0
 62
     0
100
AcDbVertex
100
AcDb2dVertex
 10
0.614071
 20
-0.215528
 30
0.0
 40
0.008713
 41
0.008713
  0
VERTEX
  5
3CB
100
AcDbEntity
  8
0
 62
     0
100
AcDbVertex
100
AcDb2dVertex
 10
0.65711
 20
-0.215528
 30
0.0
 40
0.008713
 41
0.008713
  0
SEQEND
  5
3CC
100
AcDbEntity
  8
0
 62
     0
  0
POLYLINE
  5
110
100
AcDbEntity
  8
0
 62
     0
100
AcDb2dPolyline
 66
     1
 10
0.0
 20
0.0
 30
0.0
 39
0.008713
  0
VERTEX
  5
3CD
100
AcDbEntity
  8
0
 62
     0
100
AcDbVertex
100
AcDb2dVertex
 10
0.65711
 20
-0.215528
 30
0.0
 40
0.008713
 41
0.008713
  0
VERTEX
  5
3CE
100
AcDbEntity
  8
0
 62
     0
100
AcDbVertex
100
AcDb2dVertex
 10
0.700154
 20
-0.256976
 30
0.0
 40
0.008713
 41
0.008713
  0
SEQEND
  5
3CF
100
AcDbEntity
  8
0
 62
     0
  0
POLYLINE
  5
111
100
AcDbEntity
  8
0
 62
     0
100
AcDb2dPolyline
 66
     1
 10
0.0
 20
0.0
 30
0.0
 39
0.008713
  0
VERTEX
  5
3D0
100
AcDbEntity
  8
0
 62
     0
100
AcDbVertex
100
AcDb2dVertex
 10
0.700154
 20
-0.256976
 30
0.0
 40
0.008713
 41
0.008713
  0
VERTEX
  5
3D1
100
AcDbEntity
  8
0
 62
     0
100
AcDbVertex
100
AcDb2dVertex
 10
0.700154
 20
-0.427539
 30
0.0
 40
0.008713
 41
0.008713
  0
SEQEND
  5
3D2
100
AcDbEntity
  8
0
 62
     0
  0
POLYLINE
  5
112
100
AcDbEntity
  8
0
 62
     0
100
AcDb2dPolyline
 66
     1
 10
0.0
 20
0.0
 30
0.0
 39
0.008713
  0
VERTEX
  5
3D3
100
AcDbEntity
  8
0
 62
     0
100
AcDbVertex
100
AcDb2dVertex
 10
0.700154
 20
-0.427539
 30
0.0
 40
0.008713
 41
0.008713
  0
VERTEX
  5
3D4
100
AcDbEntity
  8
0
 62
     0
100
AcDbVertex
100
AcDb2dVertex
 10
0.65711
 20
-0.470583
 30
0.0
 40
0.008713
 41
0.008713
  0
SEQEND
  5
3D5
100
AcDbEntity
  8
0
 62
     0
  0
POLYLINE
  5
113
100
AcDbEntity
  8
0
 62
     0
100
AcDb2dPolyline
 66
     1
 10
0.0
 20
0.0
 30
0.0
 39
0.008713
  0
VERTEX
  5
3D6
100
AcDbEntity
  8
0
 62
     0
100
AcDbVertex
100
AcDb2dVertex
 10
0.65711
 20
-0.470583
 30
0.0
 40
0.008713
 41
0.008713
  0
VERTEX
  5
3D7
100
AcDbEntity
  8
0
 62
     0
100
AcDbVertex
100
AcDb2dVertex
 10
0.614071
 20
-0.470583
 30
0.0
 40
0.008713
 41
0.008713
  0
SEQEND
  5
3D8
100
AcDbEntity
  8
0
 62
     0
  0
POLYLINE
  5
114
100
AcDbEntity
  8
0
 62
     0
100
AcDb2dPolyline
 66
     1
 10
0.0
 20
0.0
 30
0.0
 39
0.008713
  0
VERTEX
  5
3D9
100
AcDbEntity
  8
0
 62
     0
100
AcDbVertex
100
AcDb2dVertex
 10
0.821303
 20
-0.470583
 30
0.0
 40
0.008713
 41
0.008713
  0
VERTEX
  5
3DA
100
AcDbEntity
  8
0
 62
     0
100
AcDbVertex
100
AcDb2dVertex
 10
0.779854
 20
-0.427539
 30
0.0
 40
0.008713
 41
0.008713
  0
SEQEND
  5
3DB
100
AcDbEntity
  8
0
 62
     0
  0
POLYLINE
  5
115
100
AcDbEntity
  8
0
 62
     0
100
AcDb2dPolyline
 66
     1
 10
0.0
 20
0.0
 30
0.0
 39
0.008713
  0
VERTEX
  5
3DC
100
AcDbEntity
  8
0
 62
     0
100
AcDbVertex
100
AcDb2dVertex
 10
0.779854
 20
-0.427539
 30
0.0
 40
0.008713
 41
0.008713
  0
VERTEX
  5
3DD
100
AcDbEntity
  8
0
 62
     0
100
AcDbVertex
100
AcDb2dVertex
 10
0.779854
 20
-0.256976
 30
0.0
 40
0.008713
 41
0.008713
  0
SEQEND
  5
3DE
100
AcDbEntity
  8
0
 62
     0
  0
POLYLINE
  5
116
100
AcDbEntity
  8
0
 62
     0
100
AcDb2dPolyline
 66
     1
 10
0.0
 20
0.0
 30
0.0
 39
0.008713
  0
VERTEX
  5
3DF
100
AcDbEntity
  8
0
 62
     0
100
AcDbVertex
100
AcDb2dVertex
 10
0.779854
 20
-0.256976
 30
0.0
 40
0.008713
 41
0.008713
  0
VERTEX
  5
3E0
100
AcDbEntity
  8
0
 62
     0
100
AcDbVertex
100
AcDb2dVertex
 10
0.821303
 20
-0.215528
 30
0.0
 40
0.008713
 41
0.008713
  0
SEQEND
  5
3E1
100
AcDbEntity
  8
0
 62
     0
  0
POLYLINE
  5
117
100
AcDbEntity
  8
0
 62
     0
100
AcDb2dPolyline
 66
     1
 10
0.0
 20
0.0
 30
0.0
 39
0.008713
  0
VERTEX
  5
3E2
100
AcDbEntity
  8
0
 62
     0
100
AcDbVertex
100
AcDb2dVertex
 10
0.821303
 20
-0.215528
 30
0.0
 40
0.008713
 41
0.008713
  0
VERTEX
  5
3E3
100
AcDbEntity
  8
0
 62
     0
100
AcDbVertex
100
AcDb2dVertex
 10
0.864343
 20
-0.215528
 30
0.0
 40
0.008713
 41
0.008713
  0
SEQEND
  5
3E4
100
AcDbEntity
  8
0
 62
     0
  0
POLYLINE
  5
118
100
AcDbEntity
  8
0
 62
     0
100
AcDb2dPolyline
 66
     1
 10
0.0
 20
0.0
 30
0.0
 39
0.008713
  0
VERTEX
  5
3E5
100
AcDbEntity
  8
0
 62
     0
100
AcDbVertex
100
AcDb2dVertex
 10
0.864343
 20
-0.215528
 30
0.0
 40
0.008713
 41
0.008713
  0
VERTEX
  5
3E6
100
AcDbEntity
  8
0
 62
     0
100
AcDbVertex
100
AcDb2dVertex
 10
0.907382
 20
-0.256976
 30
0.0
 40
0.008713
 41
0.008713
  0
SEQEND
  5
3E7
100
AcDbEntity
  8
0
 62
     0
  0
POLYLINE
  5
119
100
AcDbEntity
  8
0
 62
     0
100
AcDb2dPolyline
 66
     1
 10
0.0
 20
0.0
 30
0.0
 39
0.008713
  0
VERTEX
  5
3E8
100
AcDbEntity
  8
0
 62
     0
100
AcDbVertex
100
AcDb2dVertex
 10
0.907382
 20
-0.256976
 30
0.0
 40
0.008713
 41
0.008713
  0
VERTEX
  5
3E9
100
AcDbEntity
  8
0
 62
     0
100
AcDbVertex
100
AcDb2dVertex
 10
0.907382
 20
-0.427539
 30
0.0
 40
0.008713
 41
0.008713
  0
SEQEND
  5
3EA
100
AcDbEntity
  8
0
 62
     0
  0
POLYLINE
  5
11A
100
AcDbEntity
  8
0
 62
     0
100
AcDb2dPolyline
 66
     1
 10
0.0
 20
0.0
 30
0.0
 39
0.008713
  0
VERTEX
  5
3EB
100
AcDbEntity
  8
0
 62
     0
100
AcDbVertex
100
AcDb2dVertex
 10
0.907382
 20
-0.427539
 30
0.0
 40
0.008713
 41
0.008713
  0
VERTEX
  5
3EC
100
AcDbEntity
  8
0
 62
     0
100
AcDbVertex
100
AcDb2dVertex
 10
0.864343
 20
-0.470583
 30
0.0
 40
0.008713
 41
0.008713
  0
SEQEND
  5
3ED
100
AcDbEntity
  8
0
 62
     0
  0
POLYLINE
  5
11B
100
AcDbEntity
  8
0
 62
     0
100
AcDb2dPolyline
 66
     1
 10
0.0
 20
0.0
 30
0.0
 39
0.008713
  0
VERTEX
  5
3EE
100
AcDbEntity
  8
0
 62
     0
100
AcDbVertex
100
AcDb2dVertex
 10
0.864343
 20
-0.470583
 30
0.0
 40
0.008713
 41
0.008713
  0
VERTEX
  5
3EF
100
AcDbEntity
  8
0
 62
     0
100
AcDbVertex
100
AcDb2dVertex
 10
0.821303
 20
-0.470583
 30
0.0
 40
0.008713
 41
0.008713
  0
SEQEND
  5
3F0
100
AcDbEntity
  8
0
 62
     0
  0
POLYLINE
  5
11C
100
AcDbEntity
  8
0
 62
     0
100
AcDb2dPolyline
 66
     1
 10
0.0
 20
0.0
 30
0.0
 39
0.008713
  0
VERTEX
  5
3F1
100
AcDbEntity
  8
0
 62
     0
100
AcDbVertex
100
AcDb2dVertex
 10
0.99187
 20
-0.470583
 30
0.0
 40
0.008713
 41
0.008713
  0
VERTEX
  5
3F2
100
AcDbEntity
  8
0
 62
     0
100
AcDbVertex
100
AcDb2dVertex
 10
0.99187
 20
-0.215528
 30
0.0
 40
0.008713
 41
0.008713
  0
SEQEND
  5
3F3
100
AcDbEntity
  8
0
 62
     0
  0
POLYLINE
  5
11D
100
AcDbEntity
  8
0
 62
     0
100
AcDb2dPolyline
 66
     1
 10
0.0
 20
0.0
 30
0.0
 39
0.008713
  0
VERTEX
  5
3F4
100
AcDbEntity
  8
0
 62
     0
100
AcDbVertex
100
AcDb2dVertex
 10
0.99187
 20
-0.215528
 30
0.0
 40
0.008713
 41
0.008713
  0
VERTEX
  5
3F5
100
AcDbEntity
  8
0
 62
     0
100
AcDbVertex
100
AcDb2dVertex
 10
1.162433
 20
-0.215528
 30
0.0
 40
0.008713
 41
0.008713
  0
SEQEND
  5
3F6
100
AcDbEntity
  8
0
 62
     0
  0
POLYLINE
  5
11E
100
AcDbEntity
  8
0
 62
     0
100
AcDb2dPolyline
 66
     1
 10
0.0
 20
0.0
 30
0.0
 39
0.008713
  0
VERTEX
  5
3F7
100
AcDbEntity
  8
0
 62
     0
100
AcDbVertex
100
AcDb2dVertex
 10
0.99187
 20
-0.343055
 30
0.0
 40
0.008713
 41
0.008713
  0
VERTEX
  5
3F8
100
AcDbEntity
  8
0
 62
     0
100
AcDbVertex
100
AcDb2dVertex
 10
1.076354
 20
-0.343055
 30
0.0
 40
0.008713
 41
0.008713
  0
SEQEND
  5
3F9
100
AcDbEntity
  8
0
 62
     0
  0
POLYLINE
  5
11F
100
AcDbEntity
  8
0
 62
     0
100
AcDb2dPolyline
 66
     1
 10
0.0
 20
0.0
 30
0.0
 39
0.008713
  0
VERTEX
  5
3FA
100
AcDbEntity
  8
0
 62
     0
100
AcDbVertex
100
AcDb2dVertex
 10
1.246921
 20
-0.343055
 30
0.0
 40
0.008713
 41
0.008713
  0
VERTEX
  5
3FB
100
AcDbEntity
  8
0
 62
     0
100
AcDbVertex
100
AcDb2dVertex
 10
1.417488
 20
-0.343055
 30
0.0
 40
0.008713
 41
0.008713
  0
SEQEND
  5
3FC
100
AcDbEntity
  8
0
 62
     0
  0
POLYLINE
  5
120
100
AcDbEntity
  8
0
 62
     0
100
AcDb2dPolyline
 66
     1
 10
0.0
 20
0.0
 30
0.0
 39
0.008713
  0
VERTEX
  5
3FD
100
AcDbEntity
  8
0
 62
     0
100
AcDbVertex
100
AcDb2dVertex
 10
1.501972
 20
-0.256976
 30
0.0
 40
0.008713
 41
0.008713
  0
VERTEX
  5
3FE
100
AcDbEntity
  8
0
 62
     0
100
AcDbVertex
100
AcDb2dVertex
 10
1.538638
 20
-0.215528
 30
0.0
 40
0.008713
 41
0.008713
  0
SEQEND
  5
3FF
100
AcDbEntity
  8
0
 62
     0
  0
POLYLINE
  5
121
100
AcDbEntity
  8
0
 62
     0
100
AcDb2dPolyline
 66
     1
 10
0.0
 20
0.0
 30
0.0
 39
0.008713
  0
VERTEX
  5
400
100
AcDbEntity
  8
0
 62
     0
100
AcDbVertex
100
AcDb2dVertex
 10
1.538638
 20
-0.215528
 30
0.0
 40
0.008713
 41
0.008713
  0
VERTEX
  5
401
100
AcDbEntity
  8
0
 62
     0
100
AcDbVertex
100
AcDb2dVertex
 10
1.538638
 20
-0.470583
 30
0.0
 40
0.008713
 41
0.008713
  0
SEQEND
  5
402
100
AcDbEntity
  8
0
 62
     0
  0
POLYLINE
  5
122
100
AcDbEntity
  8
0
 62
     0
100
AcDb2dPolyline
 66
     1
 10
0.0
 20
0.0
 30
0.0
 39
0.008713
  0
VERTEX
  5
403
100
AcDbEntity
  8
0
 62
     0
100
AcDbVertex
100
AcDb2dVertex
 10
1.501972
 20
-0.470583
 30
0.0
 40
0.008713
 41
0.008713
  0
VERTEX
  5
404
100
AcDbEntity
  8
0
 62
     0
100
AcDbVertex
100
AcDb2dVertex
 10
1.581677
 20
-0.470583
 30
0.0
 40
0.008713
 41
0.008713
  0
SEQEND
  5
405
100
AcDbEntity
  8
0
 62
     0
  0
POLYLINE
  5
123
100
AcDbEntity
  8
0
 62
     0
100
AcDb2dPolyline
 66
     1
 10
0.0
 20
0.0
 30
0.0
 39
0.008713
  0
VERTEX
  5
406
100
AcDbEntity
  8
0
 62
     0
100
AcDbVertex
100
AcDb2dVertex
 10
1.709205
 20
-0.470583
 30
0.0
 40
0.008713
 41
0.008713
  0
VERTEX
  5
407
100
AcDbEntity
  8
0
 62
     0
100
AcDbVertex
100
AcDb2dVertex
 10
1.666161
 20
-0.427539
 30
0.0
 40
0.008713
 41
0.008713
  0
SEQEND
  5
408
100
AcDbEntity
  8
0
 62
     0
  0
POLYLINE
  5
124
100
AcDbEntity
  8
0
 62
     0
100
AcDb2dPolyline
 66
     1
 10
0.0
 20
0.0
 30
0.0
 39
0.008713
  0
VERTEX
  5
409
100
AcDbEntity
  8
0
 62
     0
100
AcDbVertex
100
AcDb2dVertex
 10
1.666161
 20
-0.427539
 30
0.0
 40
0.008713
 41
0.008713
  0
VERTEX
  5
40A
100
AcDbEntity
  8
0
 62
     0
100
AcDbVertex
100
AcDb2dVertex
 10
1.666161
 20
-0.256976
 30
0.0
 40
0.008713
 41
0.008713
  0
SEQEND
  5
40B
100
AcDbEntity
  8
0
 62
     0
  0
POLYLINE
  5
125
100
AcDbEntity
  8
0
 62
     0
100
AcDb2dPolyline
 66
     1
 10
0.0
 20
0.0
 30
0.0
 39
0.008713
  0
VERTEX
  5
40C
100
AcDbEntity
  8
0
 62
     0
100
AcDbVertex
100
AcDb2dVertex
 10
1.666161
 20
-0.256976
 30
0.0
 40
0.008713
 41
0.008713
  0
VERTEX
  5
40D
100
AcDbEntity
  8
0
 62
     0
100
AcDbVertex
100
AcDb2dVertex
 10
1.709205
 20
-0.215528
 30
0.0
 40
0.008713
 41
0.008713
  0
SEQEND
  5
40E
100
AcDbEntity
  8
0
 62
     0
  0
POLYLINE
  5
126
100
AcDbEntity
  8
0
 62
     0
100
AcDb2dPolyline
 66
     1
 10
0.0
 20
0.0
 30
0.0
 39
0.008713
  0
VERTEX
  5
40F
100
AcDbEntity
  8
0
 62
     0
100
AcDbVertex
100
AcDb2dVertex
 10
1.709205
 20
-0.215528
 30
0.0
 40
0.008713
 41
0.008713
  0
VERTEX
  5
410
100
AcDbEntity
  8
0
 62
     0
100
AcDbVertex
100
AcDb2dVertex
 10
1.752244
 20
-0.215528
 30
0.0
 40
0.008713
 41
0.008713
  0
SEQEND
  5
411
100
AcDbEntity
  8
0
 62
     0
  0
POLYLINE
  5
127
100
AcDbEntity
  8
0
 62
     0
100
AcDb2dPolyline
 66
     1
 10
0.0
 20
0.0
 30
0.0
 39
0.008713
  0
VERTEX
  5
412
100
AcDbEntity
  8
0
 62
     0
100
AcDbVertex
100
AcDb2dVertex
 10
1.752244
 20
-0.215528
 30
0.0
 40
0.008713
 41
0.008713
  0
VERTEX
  5
413
100
AcDbEntity
  8
0
 62
     0
100
AcDbVertex
100
AcDb2dVertex
 10
1.793689
 20
-0.256976
 30
0.0
 40
0.008713
 41
0.008713
  0
SEQEND
  5
414
100
AcDbEntity
  8
0
 62
     0
  0
POLYLINE
  5
128
100
AcDbEntity
  8
0
 62
     0
100
AcDb2dPolyline
 66
     1
 10
0.0
 20
0.0
 30
0.0
 39
0.008713
  0
VERTEX
  5
415
100
AcDbEntity
  8
0
 62
     0
100
AcDbVertex
100
AcDb2dVertex
 10
1.793689
 20
-0.256976
 30
0.0
 40
0.008713
 41
0.008713
  0
VERTEX
  5
416
100
AcDbEntity
  8
0
 62
     0
100
AcDbVertex
100
AcDb2dVertex
 10
1.793689
 20
-0.427539
 30
0.0
 40
0.008713
 41
0.008713
  0
SEQEND
  5
417
100
AcDbEntity
  8
0
 62
     0
  0
POLYLINE
  5
129
100
AcDbEntity
  8
0
 62
     0
100
AcDb2dPolyline
 66
     1
 10
0.0
 20
0.0
 30
0.0
 39
0.008713
  0
VERTEX
  5
418
100
AcDbEntity
  8
0
 62
     0
100
AcDbVertex
100
AcDb2dVertex
 10
1.793689
 20
-0.427539
 30
0.0
 40
0.008713
 41
0.008713
  0
VERTEX
  5
419
100
AcDbEntity
  8
0
 62
     0
100
AcDbVertex
100
AcDb2dVertex
 10
1.752244
 20
-0.470583
 30
0.0
 40
0.008713
 41
0.008713
  0
SEQEND
  5
41A
100
AcDbEntity
  8
0
 62
     0
  0
POLYLINE
  5
12A
100
AcDbEntity
  8
0
 62
     0
100
AcDb2dPolyline
 66
     1
 10
0.0
 20
0.0
 30
0.0
 39
0.008713
  0
VERTEX
  5
41B
100
AcDbEntity
  8
0
 62
     0
100
AcDbVertex
100
AcDb2dVertex
 10
1.752244
 20
-0.470583
 30
0.0
 40
0.008713
 41
0.008713
  0
VERTEX
  5
41C
100
AcDbEntity
  8
0
 62
     0
100
AcDbVertex
100
AcDb2dVertex
 10
1.709205
 20
-0.470583
 30
0.0
 40
0.008713
 41
0.008713
  0
SEQEND
  5
41D
100
AcDbEntity
  8
0
 62
     0
  0
POLYLINE
  5
12B
100
AcDbEntity
  8
0
 62
     0
100
AcDb2dPolyline
 66
     1
 10
0.0
 20
0.0
 30
0.0
 39
0.008713
  0
VERTEX
  5
41E
100
AcDbEntity
  8
0
 62
     0
100
AcDbVertex
100
AcDb2dVertex
 10
-2.382795
 20
-0.633177
 30
0.0
 40
0.008713
 41
0.008713
  0
VERTEX
  5
41F
100
AcDbEntity
  8
0
 62
     0
100
AcDbVertex
100
AcDb2dVertex
 10
2.087
 20
-0.633177
 30
0.0
 40
0.008713
 41
0.008713
  0
SEQEND
  5
420
100
AcDbEntity
  8
0
 62
     0
  0
ENDSEC
  0
SECTION
  2
OBJECTS
  0
DICTIONARY
  5
19
100
AcDbDictionary
  3
ACAD_GROUP
350
1A
  3
ACAD_MLINESTYLE
350
1B
  0
DICTIONARY
  5
1A
102
{ACAD_REACTORS
330
19
102
}
100
AcDbDictionary
  0
DICTIONARY
  5
1B
102
{ACAD_REACTORS
330
19
102
}
100
AcDbDictionary
  3
STANDARD
350
1C
  0
MLINESTYLE
  5
1C
102
{ACAD_REACTORS
330
1B
102
}
100
AcDbMlineStyle
  2
STANDARD
 70
     0
  3

 62
     0
 51
90.0
 52
90.0
 71
     2
 49
0.5
 62
   256
  6
BYLAYER
 49
-0.5
 62
   256
  6
BYLAYER
  0
DICTIONARY
  5
22
102
{ACAD_REACTORS
330
19
102
}
100
AcDbDictionary
  0
ENDSEC
  0
EOF
